Home » L » Little Feat »

Little Feat - Spanish Moon Bass

Artists:  A B C D E F G H I J K L M N O P Q R S T U V W X Y Z # 

Spanish Moon Bass

(ver. 1) Click to play this song!
Little Feat
 Rating:
4/5 (4 votes)
                Spanish Moon Tab by Little Feat
As played by Andy Hess of Gov’t Mule

Main Bass Line
G|---------------------------------------------------------------------|
D|-----------------------------------5---3-----------------------------|
A|---5-------------3---5---------5-----------5-----------------3-------|
E|-------------5---------------------------------------3---5-----------|


Variation used for some parts.
G|-----------------------------------------------------------|
D|-------------------------------------------3---3-----------|
A|---3---5---------3---5---5---3---------5-----------5-------|
E|-----------------------------------------------------------|
            
Submit corrections

↑ Back to top | Tablatures and chords for acoustic guitar and electric guitar, ukulele, drums are parodies/interpretations of the original songs. You may use it for private study, scholarship, research or language learning purposes only