» » »

Little Feat - Feats Dont Fail Me Now Tabs

Artists:  A B C D E F G H I J K L M N O P Q R S T U V W X Y Z # 

Feats Dont Fail Me Now Tabs

(ver. 1) Click to play this song!
Little Feat
 Rating:
2.6/5 (23 votes)

 Feats Dont Fail Me Now  lessons Tabs too difficult? Try these video lessons and learn fast
 
                
e|-------|--------------------|--------------------|
b|-------|--------------------|---------------0-0_-|
g|-------|-3-4-0_0---0_0---0_-|-3-4-0_0---0_0-0-0_-|
d|-3/5__-|---------2^---------|---------2^---------|
a|-------|---------------2----|--------------------|
E|-------|--------------------|--------------------|

|--------------------|------------|
|--------------------|-/-/--------|
|-3-4-0_0---0_0---0_-|-/-/--------|
|---------2^----2----|-/-/--------|
|--------------------|-/-/-1-2_---|
|--------------------|---------3_-|

Your daddy says...
|----------|--------------------|
|----------|--------------------|
|-------0_-|-3-4-0_0---0_0---0_-|
|-5__-2----|---------2^----2----|
|----------|--------------------|
|----------|--------------------|

Your mama says...
|------|---------------------|
|------|-/-/-----------------|
|------|-/-/-----------------|
|-5___-|-/-/-------2^0-------|
|------|-/-/-1_-2_----^2_----|
|------|------------------3_-|

I've got to tell you truthful girl...
(Turns G-blues scale here and repeats for a while, also played during "Roll right through the night" etc.)
|------------------------|
|------------------------|
|------------------------|
|-5__-5__--5-5_-------5_-|
|-5__-5__-------5_-3_-5_-|
|------------------------|

Don't the sunrise...
(G)                       (C)
|-------------|---------------|
|-------------|---------------|
|-------------|---------------|
|-------------|---------------|
|-------------|------0_-2_-3_-|
|-3____-3____-|-3-3_----------|

Like rolling...
(C)     (D)               (G)
|-------------|--------------|
|-------------|--------------|
|-------------|--------------|
|-------------|--------------|
|-3____-5____-|-5-5_-5_------|
|-------------|--------6_-3_-|

(break)
|---------------------|
|---------------------|
|---------------------|
|----------2-1-0_0----|
|---1-2-----------1_--|
|-3_------------------|

|---------------------|
|---------------------|
|---------------------|
|---------------------|
|---1-3----3-3-3-3-1_-|
|-3_------------------|            
Submit corrections


        Feats Dont Fail Me Now  lessons Hard to play? Try these video lessons and learn fast Feats Dont Fail Me Now  lessons
        
↑ Back to top | Tablatures and chords for acoustic guitar and electric guitar, ukulele, drums are parodies/interpretations of the original songs. You may use it for private study, scholarship, research or language learning purposes only