Home » L » Little Dragon »

Little Dragon - Crystalfilm Tabs

Artists:  A B C D E F G H I J K L M N O P Q R S T U V W X Y Z # 

Crystalfilm Tabs

(ver. 1) Click to play this song!
Little Dragon
[Intro] x 8
e|-----------|
b|-----------|
g|-----------|
d|-----------|
a|--0-0-0-0--|
E|-----------|
 
[Intro] x 1
e|--------------------------------------------|--------------------------------------------|
b|--------------------------------------------|--------------------------------------------|
g|------0---------0---------0-----------------|------0---------0---------0-----------------|
d|-----2---------2---------2------------------|-----2---------2---------2------------------|
a|----0--0-0-0--0--0-0-0--3-------------------|----0--0-0-0--0--0-0-0--3-------------------|
E|----0---------1---------5--5-5-5-5-5-5-5----|----0---------1---------5--5-5-5-5-5-5-5----|
 
[Verse 1}
 
Lost my grip and my vision gone dull,          So swing my hip like a dancer gone numb
e|--------------------------------------------|--------------------------------------------|
b|--------------------------------------------|--------------------------------------------|
g|------0---------0---------0-----------------|------0---------0---------0-----------------|
d|-----2---------2---------2------------------|-----2---------2---------2------------------|
a|----0--0-0-0--0--0-0-0--3-------------------|----0--0-0-0--0--0-0-0--3-------------------|
E|----0---------1---------5--5-5-5-5-5-5-5----|----0---------1---------5--5-5-5-5-5-5-5----|
 
I saw your shadow, saw the skeleton run,       There's something missing from my memory of you
e|--------------------------------------------|--------------------------------------------|
b|--------------------------------------------|--------------------------------------------|
g|------0---------0---------0-----------------|------0---------0---------0-----------------|
d|-----2---------2---------2------------------|-----2---------2---------2------------------|
a|----3---------0---------0--0-0-0-0-0-0-0----|----3---------0---------0--0-0-0-0-0-0-0----|
E|----5--5-5-5--5--5-5-5--1-------------------|----5--5-5-5--5--5-5-5--1-------------------|
 
[Verse 2]
 
You shake my world from the ground to my head, A distant noise that'll wake me out of bed
e|--------------------------------------------|--------------------------------------------|
b|--------------------------------------------|--------------------------------------------|
g|------0---------0---------0-----------------|------0---------0---------0-----------------|
d|-----2---------2---------2------------------|-----2---------2---------2------------------|
a|----0--0-0-0--0--0-0-0--3-------------------|----0--0-0-0--0--0-0-0--3-------------------|
E|----0---------1---------5--5-5-5-5-5-5-5----|----0---------1---------5--5-5-5-5-5-5-5----|
 
I listen as the walls cave in,                 I'm hanging on 'cause your memory's thin
e|--------------------------------------------|--------------------------------------------|
b|--------------------------------------------|--------------------------------------------|
g|------0---------0---------0-----------------|------0---------0---------0-----------------|
d|-----2---------2---------2------------------|-----2---------2---------2------------------|
a|----3---------0---------0--0-0-0-0-0-0-0----|----3---------5---------0--0-0-0-0-0-0-0----|
E|----5--5-5-5--5--5-5-5--1-------------------|----5--5-5-5--5--5-5-5--1-------------------|
 
[Chorus]
 
Ooh I lost my grip I balance it on a piece of paper, True, you wanna trip, it's waving in and I'll wait for later
e|--------------------------------------------------|------------------------------------------------|
b|--------------------------------------------------|------------------------------------------------|
g|------0---------0---------0-----------------------|----------0---------0---------0-----------------|
d|-----2---------2---------2------------------------|---------2---------2---------2------------------|
a|----0--0-0-0--0--0-0-0--3-------------------------|--------0--0-0-0--0--0-0-0--3-------------------|
E|----0---------1---------5--5-5-5-5-5-5-5----------|--------0---------1---------5--5-5-5-5-5-5-5----|
 
Ooh, it's leaning on, leaning in on my yesterday,    Ooh, it's sneaking in, it's sneaking in on me, on me
e|--------------------------------------------------|------------------------------------------------|
b|--------------------------------------------------|------------------------------------------------|
g|------0---------0---------0-----------------------|----------0---------0---------0-----------------|
d|-----2---------2---------2------------------------|---------2---------2---------2------------------|
a|----0--0-0-0--0--0-0-0--3-------------------------|--------0--0-0-0--0--0-0-0--3-------------------|
E|----0---------1---------5--5-5-5-5-5-5-5----------|--------0---------1---------5--5-5-5-5-5-5-5----|
 
[Verse 3]
 
I've got a house and an eternal frown,         Painted walls and letters upside down
e|--------------------------------------------|--------------------------------------------|
b|--------------------------------------------|--------------------------------------------|
g|------0---------0---------0-----------------|------0---------0---------0-----------------|
d|-----2---------2---------2------------------|-----2---------2---------2------------------|
a|----3---------0---------0--0-0-0-0-0-0-0----|----3---------0--0-0-0--0--0-0-0-0-0-0-0----|
E|----5--5-5-5--5--5-5-5--1-------------------|----5--5-5-5--0---------1-------------------|
 
I try to hold on, I try to hold on but you're gone, Then I try to let go but your memory's still on
e|-------------------------------------------------|--------------------------------------------|
b|-------------------------------------------------|--------------------------------------------|
g|------0---------0---------0----------------------|------0---------0---------0-----------------|
d|-----2---------2---------2-----------------------|-----2---------2---------2------------------|
a|----0--0-0-0--0--0-0-0--3------------------------|----0--0-0-0--0--0-0-0--3-------------------|
E|----0---------1---------5--5-5-5-5-5-5-5---------|----0---------1---------5--5-5-5-5-5-5-5----|
 
[Chorus]
 
Ooh I lost my grip I balance it on a piece of paper, True, you wanna trip, it's waving in and I'll wait for later
e|--------------------------------------------------|------------------------------------------------|
b|--------------------------------------------------|------------------------------------------------|
g|------0---------0---------0-----------------------|----------0---------0---------0-----------------|
d|-----2---------2---------2------------------------|---------2---------2---------2------------------|
a|----0--0-0-0--0--0-0-0--3-------------------------|--------0--0-0-0--0--0-0-0--3-------------------|
E|----0---------1---------5--5-5-5-5-5-5-5----------|--------0---------1---------5--5-5-5-5-5-5-5----|
 
Ooh, it's leaning on, leaning in on my yesterday,    Ooh, it's sneaking in, it's sneaking in on me, on me
e|--------------------------------------------------|------------------------------------------------|
b|--------------------------------------------------|------------------------------------------------|
g|------0---------0---------0-----------------------|----------0---------0---------0-----------------|
d|-----2---------2---------2------------------------|---------2---------2---------2------------------|
a|----0--0-0-0--0--0-0-0--3-------------------------|--------0--0-0-0--0--0-0-0--3-------------------|
E|----0---------1---------5--5-5-5-5-5-5-5----------|--------0---------1---------5--5-5-5-5-5-5-5----|
 
[Outro]
 
 on ma, on me, on ma, on me...
e|--------------------------------------------------|------------------------------------------------|
b|--------------------------------------------------|------------------------------------------------|
g|------0---------0---------0-----------------------|----------0---------0---------0-----------------|
d|-----2---------2---------2------------------------|---------2---------2---------2------------------|
a|----0--0-0-0--0--0-0-0--3-------------------------|--------3---------0---------0--0-0-0-0-0-0-0----|
E|----0---------1---------5--5-5-5-5-5-5-5----------|--------5--5-5-5--5--5-5-5--1-------------------|
 
 on ma, on me, on ma, on me...
e|--------------------------------------------|--------------------------------------------|
b|--------------------------------------------|--------------------------------------------|
g|------0---------0---------0-----------------|------0---------0---------0-----------------|
d|-----2---------2---------2------------------|-----2---------2---------2------------------|
a|----3---------0---------0--0-0-0-0-0-0-0----|----0--0-0-0--0--0-0-0--3-------------------|
E|----5--5-5-5--5--5-5-5--1-------------------|----0---------1---------5--5-5-5-5-5-5-5----|
 
 on ma, on me, on ma, on me...
e|--------------------------------------------------|------------------------------------------------|
b|--------------------------------------------------|------------------------------------------------|
g|------0---------0---------0-----------------------|----------0---------0---------0-----------------|
d|-----2---------2---------2------------------------|---------2---------2---------2------------------|
a|----0--0-0-0--0--0-0-0--3-------------------------|--------3---------0---------0--0-0-0-0-0-0-0----|
E|----0---------1---------5--5-5-5-5-5-5-5----------|--------5--5-5-5--5--5-5-5--1-------------------|
 
 on ma, on me, on ma, on me...
e|--------------------------------------------------|------------------------------------------------|
b|--------------------------------------------------|------------------------------------------------|
g|------0---------0---------0-----------------------|----------0---------0---------0-----------------|
d|-----2---------2---------2------------------------|---------2---------2---------2------------------|
a|----5---------0--0-0-0--0--0-0-0-0-0-0------------|--------0--0-0-0--0--0-0-0--3-------------------|
E|----5--5-5-5--0---------1-------------------------|--------0---------1---------5--5-5-5-5-5-5-5----|
 
 on ma, on me, on ma, on me...
e|--------------------------------------------------|------------------------------------------------|
b|--------------------------------------------------|------------------------------------------------|
g|------0---------0---------0-----------------------|----------0---------0---------0-----------------|
d|-----2---------2---------2------------------------|---------2---------2---------2------------------|
a|----0--0-0-0--0--0-0-0--3-------------------------|--------0--0-0-0--0--0-0-0--3-------------------|
E|----0---------1---------5--5-5-5-5-5-5-5----------|--------0---------1---------5--5-5-5-5-5-5-5----|
            
Submit corrections

↑ Back to top | Tablatures and chords for acoustic guitar and electric guitar, ukulele, drums are parodies/interpretations of the original songs. You may use it for private study, scholarship, research or language learning purposes only