Home » L » Little Birdy »

Little Birdy - Come On Come On Tabs

Artists:  A B C D E F G H I J K L M N O P Q R S T U V W X Y Z # 

Come On Come On Tabs

(ver. 1) Click to play this song!
Little Birdy
The Strumming changes slightly through it. Just listen to it. its easy

4/4
INTRO

  Gtr I
|-----------------|-----------------------|
|-----------------|-----------------------|
|-----------------|-----------------------|
|-9-9-9-9-9-9-9-9-|--11-11-11-11-11-11-14-|
|-9-9-9-9-9-9-9-9-|--11-11-11-11-11-11-14-|
|-7-7-7-7-7-7-7-7-|---9--9--9--9--9--9-12-|


|-----------------|------------------------|
|-----------------|------------------------|
|-----------------|------------------------|
|-9-9-9-9-9-9-9-9-|--11-11-11-11-11-11-14--|
|-9-9-9-9-9-9-9-9-|--11-11-11-11-11-11-14--|
|-7-7-7-7-7-7-7-7-|---9--9--9--9--9--9-12--|

VERSE 1

    PM---------------------------------------
||------------------|-----------------------|
||o-----------------|-----------------------|
||------------------|-----------------------|
||--9-9-9-9-9-9-9-9-|--11-11-11-11-11-11-11-|
||o-9-9-9-9-9-9-9-9-|--11-11-11-11-11-11-11-|
||--7-7-7-7-7-7-7-7-|---9--9--9--9--9--9--9-|


 --------------------------------------|
|-----------------|-------------------------||
|-----------------|------------------------o||
|-----------------|-------------------------||
|-9-9-9-9-9-9-9-9-|--11-11-11-11-11-11-14---||
|-9-9-9-9-9-9-9-9-|--11-11-11-11-11-11-14--o||
|-7-7-7-7-7-7-7-7-|---9--9--9--9--9--9-12---||

PRE CHORUS

||-----------|----------|----------|-------||
||o----------|----------|----------|------o||
||--6--------|-9--------|-4--------|-------||
||--6--------|-9--------|-4--------|-4-----||
||o-4--------|-7--------|-2--------|-4----o||
||-----------|----------|----------|-2-----||


||--------------------------|-----------------|
||o-------------------------|-----------------|
||--------------------------|-----------------|
||--11-11-11-11-11-11-11-11-|-2-2-2-2-2-2-2-2-|
||o-11-11-11-11-11-11-11-11-|-2-2-2-2-2-2-2-2-|
||---9--9--9--9--9--9--9--9-|-0-0-0-0-0-0-0-0-|

CHORUS

|-----------------|-----------------||
|-----------------|----------------o||
|-----------------|-----------------||
|-9-9-9-9-9-9-9-9-|-4-4-4-4-4-4-4-4-||
|-9-9-9-9-9-9-9-9-|-4-4-4-4-4-4-4-4o||
|-7-7-7-7-7-7-7-7-|-2-2-2-2-2-2-2-2-||


VERSE

PRE CHORUS

CHORUS

CHORUS chords again while synth plays solo

Bridge - This is basically the same as the verse but slower.  Work it out yourself

CHORUS again until it ends
            
Submit corrections

↑ Back to top | Tablatures and chords for acoustic guitar and electric guitar, ukulele, drums are parodies/interpretations of the original songs. You may use it for private study, scholarship, research or language learning purposes only