» » »

Little Big Town - Pontiac Tabs

Artists:  A B C D E F G H I J K L M N O P Q R S T U V W X Y Z # 

Pontiac Tabs

(ver. 1) Click to play this song!
Little Big Town
 Rating:
4/5 (4 votes)

 Pontiac lessons Tabs too difficult? Try these video lessons and learn fast
 
                Intro performed on CMT's
Studio 330 Sessions

Guitars I & II

Drop D tuning -   D A D G B E

Suggestions for improvement are always appreciated.
A third guitar harmonizes in standard tuning with Capo 7. 
Watching the video is highly recommended. 

INTRO- Guitars I and II    

h =hammer    ~~ =vibrato
dh =delayed hammer from open position

E---------------------------------3-|
B--3-3--3-3--3-5-7-7--3-3--3--3-3-2-|
G--0-0--0-0--3-5-7-7--0-0--0--0-0-3-|
D--2-2--2-2--3-5-7-7--2-2--2--2-2-0-|
A--0-3h-3-5h----------0-3h-5h-3-0-0-|
D---------------------------------0-|


E-----------------------------------|
B--3-3--3-3--3-5-7-7---3---3---3~~--|
G--0-0--0-0--3-5-7-7---0---0---0~~--|
D--2-2--2-2--3-5-7-7---2---2dh-2~~--|
A--0-3h-3-5h-----------3dh-3---3~~--|
D--------------------------0---0~~--|


Guitar III - (std tuning & capo 7)

Strum 320033 until the last two strums of 
the intro phrase, which are 003213.  
In the video, this is what Jimi Westbrook
is playing on his Taylor 510CE.


            
Submit corrections


        Pontiac lessons Hard to play? Try these video lessons and learn fast Pontiac lessons
        
↑ Back to top | Tablatures and chords for acoustic guitar and electric guitar, ukulele, drums are parodies/interpretations of the original songs. You may use it for private study, scholarship, research or language learning purposes only