» » »

Little Big Town - Live Forever Tabs

Artists:  A B C D E F G H I J K L M N O P Q R S T U V W X Y Z # 

Live Forever Tabs

(ver. 1) Click to play this song!
Little Big Town
 Rating:
4.3/5 (22 votes)

 Live Forever  lessons Tabs too difficult? Try these video lessons and learn fast
 
                d|-------0------------------|-------0-------------------|
A|-8---------8-----8---10---|-7---------7-----7---------|
F|-----9-------9------------|-----7-------7-------7-----|
C|---------------9----------|---------------5-------5---|
G|-7---------------7---9----|-5-------------------------|
D|--------------------------|---------------------------|
   1 e + a 2 e + a 3 e +  a   1 e + a 2 e + a 3 e + a
   Dm              Dm  Edim   Cadd9

d|-------0-----------------|-------0------------/-----|
A|-7---------7-----7---8---|-5---------5-----5--/-----|
F|-----7-------7-----------|-----5-------5------/-----|
C|---------------5---------|---------------5----/-----|
G|-5---------------5---7---|-3------------------/-----|
D|-------------------------|--------------------------|
   1 e + a 2 e + a 3 e + a   1 e + a 2 e + a 3 e + a
   Cadd9           C   Dm    Bb            
Submit corrections


        Live Forever  lessons Hard to play? Try these video lessons and learn fast Live Forever  lessons
        
↑ Back to top | Tablatures and chords for acoustic guitar and electric guitar, ukulele, drums are parodies/interpretations of the original songs. You may use it for private study, scholarship, research or language learning purposes only