Home » L » Lisa Mitchell »

Lisa Mitchell - The Land Beyond The Front Door Tabs

Artists:  A B C D E F G H I J K L M N O P Q R S T U V W X Y Z # 

The Land Beyond The Front Door Tabs

(ver. 1) Click to play this song!
Lisa Mitchell
Lisa Mitchell - The Land Beyond The Front Door
(Standard Tuning)


INTRO

  A                                               D  Bm
--------------------------------------------------2-----|
--0h2-----2-------2------2-------2-------2--------3-----|
--------2---2---2--2---2---2---2---2---2---2---2--2--4--|
------2-------2------2-------2-------2-------2-------4--|
-----------------------------------------------------2--|
--------------------------------------------------------|

  A
--------------------------------------|
--0h2-----2-------2-------2-------2---|
--------2---2---2---2---2---2---2-----|
------2-------2-------2-------2-------|
--------------------------------------|
--------------------------------------|

VERSE1
  Bm             D              A
--------2--    --------2--    --------0-------0--|
------3----    ------3----    ------2-------2----|
----4------    ----2------    ----2-------2------|
--4--------    --0--------    ----------2--------|
-----------    -----------    --0----------------|
----------- x4 ----------- x4 -------------------| x2


  F#m                      E                      D
-------------------      -------------------    --------2--|
--------2-------2--      --------0-------0--    ------3----|
------2-------2----      ------1-------1----    ----2------|
----4-------4------      ----2-------2------    --0--------|
----------4--------      ----------2--------    -----------|
--2---------------- x2   --0---------------- x2 -----------| x4


  A                      Bm             D
--------0-------0--    --------2--    --------2--|
------2-------2----    ------3----    ------3----|
----2-------2------    ----4------    ----2------|
----------2--------    --4--------    --0--------|
--0----------------    -----------    -----------|
------------------- x2 ----------- x4 -----------| x4


There's a land beyond the (Bm)front door
Near where the (D)bike leans
And nobody(A)y sees
It's like a (F#m)good dream
In the dark you (E)hold me
And we go slow (D)dancing
Like we're in a (A)movie
And nobody(Bm)y knows
And nobody(D)y sees


CHORUS

(Strum)
  A        D  E
--0--------5--7--|
--0h2------7--9--|
--2--------7--9--|
--2--------7--9--|
--0--------5--7--|
-----------------| x2
The land near where the (A)bike leans
Well (D)darlin' (E)I've got (A)yours
And (D)darlin' (E)you've got (A)mine


VERSE2
But the land beyond the (Bm)front door
Near where the (D)bike leans
Well I haven't (A)been there
In quite a (F#m)few weeks
I wonder if it's (E)still there
Like a dance floor (D)waiting
Or is it like (A)everything

  A  E        Bm
--------    --------2--    --------2-------2----|
--2-----    ------3----    ------3-------3------|
--2--1--    ----4------    ----2-------2--------|
--2--2--    --4--------    --0-------0-------0--|
--0--2--    -----------    ---------------------|
-----0--    ----------- x4 ---------------------|

And is it (A)al(E)ways (Bm)changing (D)


CHORUS2

(Strum)
  A        G#m  F#m       F#m  E    A
--0-----------------    --2----0----5--|
--0h2------4----2---    --2----0----5--|
--2--------4----2---    --2----1----6--|
--2--------6----4---    --4----2----7--|
--0--------6----4---    --4----2----7--|
-----------4----2--- x2 --2----0----5--|

(A)
Well (G#m)darlin' (F#m)I got (A)you
And (G#m)darlin' (F#m)I'll be (F#m)true
(E) (A)


VERSE3
But we can still go (A)dancing
Near where the bike leans
In another (E)suburb
In another (D)city
You can still hold (A)my hands
Behind my back
Do you hear the (E)schoolyard

  D         E   A
--0h2-----2-----------|
------3---3-----0h2---|
--------2---1---2-----|
------------2---2-----|
------------2-2-------|
----------------------|
Oh what beautiful (D)soundtrack (E) (A)
            
Submit corrections

↑ Back to top | Tablatures and chords for acoustic guitar and electric guitar, ukulele, drums are parodies/interpretations of the original songs. You may use it for private study, scholarship, research or language learning purposes only