Home » L » Lisa Loeb »

Lisa Loeb - Taffy Tabs

Artists:  A B C D E F G H I J K L M N O P Q R S T U V W X Y Z # 

Taffy Tabs

(ver. 1) Click to play this song!
Lisa Loeb
Artist - Lisa Loeb And Nine Stories
Song - Taffy
Album - Tails

This probably isn't 100% correct but is very close and sounds fine with the cd or alone.  Mainly I left out the differences with the eletric and focused on Lisa's guitar.

Key

x - Muted strum
V - Downstroke
^ - Upstroke
(#) - Grace note, play when you feel like it, or if you do at all


Intro/Main Riff 			Repeat x 2

E |---0---0---0-----0--0------0---0---0-----0--0------|
B |---0---0---0-----0--0------0---0---0-----0--0------|
G |--11--11--11--x-11-11--xx--9---9---9--x--9--9--xx--|
D |--11--11--11--x-11-11--xx--9---9---9--x--9--9--xx--|
A |---9---9---9--x--9--9--xx--7---7---7--x--7--7--xx--|
E |--(0)-(0)-(0)---(0)(0)----(0)-(0)-(0)---(0)(0)-----|
      V   V   V  ^  V  V  V^  V   V   V  ^  V  V  V^

E |---0---0---0-----0--0------0---0---0-----0--0------|
B |---0---0---0-----0--0------0---0---0-----0--0------|
G |---7---7---7--x--7--7--xx--9---9---9--x--9--9--xx--|
D |---7---7---7--x--7--7--xx--9---9---9--x--9--9--xx--|
A |---5---5---5--x--5--5--xx--7---7---7--x--7--7--xx--|
E |--(0)-(0)-(0)---(0)(0)----(0)-(0)-(0)---(0)(0)-----|
      V   V   V  ^  V  V  V^  V   V   V  ^  V  V  V^

Verse

 "My friends got a bruise on his leg...."
E |--0---0---0-----0--0------0---0---0-----0--0------0---0---0-----0--0---|
B |--0---0---0-----0--0------0---0---0-----0--0------0---0---0-----0--0---|
G |-11--11--11--x-11-11--xx--9---9---9--x--9--9--xx--7---7---7--x--7--7---|
D |-11--11--11--x-11-11--xx--9---9---9--x--9--9--xx--7---7---7--x--7--7---|
A |--9---9---9--x--9--9--xx--7---7---7--x--7--7--xx--5---5---5--x--5--5---|
E |-(0)-(0)-(0)---(0)(0)----(0)-(0)-(0)---(0)(0)----(0)-(0)-(0)---(0)(0)--|
     V   V   V  ^  V  V  V^  V   V   V  ^  V  V  V^  V   V   V  ^  V  V

 "...Everytime you speak..."
E |--------------------------|
B |--------------------------|
G |--------------------------|
D |--4-4--4------------------|
A |--4-4--4------------------|
E |--2-2--2------------------|
     V ^  V

Chorus
 "Actually, the bottom line....."
	Repeat times three then--->  Play this; Repeat 2nd time
E |----------0---------------4------|---------------------------|
B |----------0---------------4------|---------------------------|
G |------7---------------6----------|---------------------------|
D |----7---7---7-------6---6---6----|---4-4---------------------|
A |--5-----------5---4-----------4--|---4-4---------------------|
E |---------------------------------|---2-2---------------------|
	     ^		     ^

 "My friends got a bruise on his arm...."
E |--0---0---0-----0--0------0---0---0-----0--0------0---0---0-----0--0---|
B |--0---0---0-----0--0------0---0---0-----0--0------0---0---0-----0--0---|
G |-11--11--11--x-11-11--xx--9---9---9--x--9--9--xx--7---7---7--x--7--7---|
D |-11--11--11--x-11-11--xx--9---9---9--x--9--9--xx--7---7---7--x--7--7---|
A |--9---9---9--x--9--9--xx--7---7---7--x--7--7--xx--5---5---5--x--5--5---|
E |-(0)-(0)-(0)---(0)(0)----(0)-(0)-(0)---(0)(0)----(0)-(0)-(0)---(0)(0)--|
     V   V   V  ^  V  V  V^  V   V   V  ^  V  V  V^  V   V   V  ^  V  V

 "...Everytime you speak..."
E |--------------------------|
B |--------------------------|
G |--------------------------|
D |--4-4--4------------------|
A |--4-4--4------------------|
E |--2-2--2------------------|
     V ^  V

All parts are here, it's just a matter of arranging them right, that should be simple enough while listening with the album.
            
Submit corrections

↑ Back to top | Tablatures and chords for acoustic guitar and electric guitar, ukulele, drums are parodies/interpretations of the original songs. You may use it for private study, scholarship, research or language learning purposes only