Home » L » Lisa Loeb »

Lisa Loeb - Sandalwood Tabs

Artists:  A B C D E F G H I J K L M N O P Q R S T U V W X Y Z # 

Sandalwood Tabs

(ver. 1) Click to play this song!
Lisa Loeb
PROPS GO TO: Jocelyn


Tune down one whole step (D), or, if you are blessed with a cutaway, you can put a capo on the 9th or 10th fret and emphasise the bass notes a little more. This sounds awesome if one guitar is tuned down and another with the capo.

                                                                repeat 9x
|---3------------|--3------------|--3--3----------|---3-----------|
|---3------------|--3------------|--3--3----------|---3-----------|
|---0------------|--0------------|--0--2----------|---2-----------|
|---2------------|--0------------|----------------|---------------|
|---2------------|--x------------|----------------|---------------|
|----------------|--3------------|----------------|---------------|
      She can't 	tell me that    all of the love songs have been
    written             cause she's never been in love with you before
Your skin smells    lovely like     Sandalwood
               Your hair falls      soft like	animals
                I’m trying to keep  cool        but everyone
likes you

|----3------|----3------|
|----3------|----3------|
|----0------|----0------|
|----2------|----2------|
|----3------|----3------|
|-----------|-----------|

|---3------------|--3------------|--3--3----------|---3-----------|
|---3------------|--3------------|--3--3----------|---3-----------|
|---0------------|--0------------|--2--2----------|---2-----------|
|---2------------|--0------------|----------------|---------------|
|---2------------|--x------------|----------------|---------------|
|----------------|--3------------|----------------|---------------|
Now I want to      kiss        the back of your neck
The top of your    spine where your hair hits
And gnaw on your   fingertips and              fall asleep
I'll talk you to    sleep

|--3------------|--3------------|--3------------|--3------------|
|--3------------|--3------------|--3------------|--3------------|
|--0------------|--0------------|--0------------|--0------------|
|--2------------|--2------------|--2------------|--2------------|
|--3------------|--3------------|--3------------|--3------------|
|---------------|---------------|---------------|---------------|
  I'll be the one             that I will have    chosen

|---3------------|--3------------|--3--3----------|---3-----------|
|---3------------|--3------------|--3--3----------|---3-----------|
|---0------------|--0------------|--0h-2----------|---2-----------|
|---2------------|--0------------|----------------|---------------|
|---2------------|--x------------|----------------|---------------|
|----------------|--3------------|----------------|---------------|
   I'm trying to    keep cool but   everyone here likes you
        I'm not 	   the on-            ly            one	      
Your skin smells    lovely like     Sandalwood
               Your hair falls      soft like      animals
                And nothing else    matters            to me.

|---3--------|---3--------|---3--------|---3--------|
|---3--------|---3--------|---3--------|---3--------|
|---0--------|---0--------|---0--------|---0--------|
|---2--------|---2--------|---2--------|---2--------|
|---3--------|---3--------|---3--------|---3--------|
|------------|------------|------------|------------|

|---3------------|---3------------|--3--3----------|---3-----------|
|---3------------|---3------------|--3--3----------|---3-----------|
|---0------------|---0------------|--0h-2----------|---2-----------|
|---2------------|---0------------|----------------|---------------|
|---2------------|---x------------|----------------|---------------|
|----------------|---3------------|----------------|---------------|
      She can't     tell me that     all of the love  songs have been
written cause she's never been in love with you      before 
in love with     you           before.

|---3------------|--3------------|--3--3----------|---3-----------|
|---3------------|--3------------|--3--3----------|---3-----------|
|---0------------|--0------------|--0h-2----------|---2-----------|
|---2------------|--0------------|----------------|---------------|
|---2------------|--x------------|----------------|---------------|
|----------------|--3------------|----------------|---------------|
      Your hand	    so hot              burns a     hole in my
      hand.                       I wanted to show you.
            
Submit corrections

↑ Back to top | Tablatures and chords for acoustic guitar and electric guitar, ukulele, drums are parodies/interpretations of the original songs. You may use it for private study, scholarship, research or language learning purposes only