Home » L » Lisa Hannigan »

Lisa Hannigan - Safe Travels Dont Die Bass

Artists:  A B C D E F G H I J K L M N O P Q R S T U V W X Y Z # 

Safe Travels Dont Die Bass

(ver. 1) Click to play this song!
Lisa Hannigan
[Intro]                      {Verse 1]
                             Please...  and   I...              friend.
G|---------------|----------|---------------|-------------------------|
D|rest 4 measures|----------|rest 8 measures|-------------------------|
A|--(3/4 time)---|----2--3--|---------------|----2-/7--5--3-----2-----|
E|---------------|-3--------|---------------|-3--------------3--------|


[Chorus 1]                   
  Like you always  say...             die.                        
G|---------------|------------------------------------------------|
D|-----rest------|------------------------------------------------|
A|---------------|-----3-----3-----3-------2-/7-----------2-/7----|
E|---------------|--3-----3-----3-----3-----------8-\3------------|


[Verse 2]
  And don't...           seems. Please cross...            caffeine.
G|-----------------------------|------|---------------------------|
D|-----------------------------|-rest-|---------------------------|
A|-------2-/7--5--3------2-----|------|-----2-/7--5--3-----2------|
E|-8-\3--------------3---------|------|--3--------------3---------|

[Chorus var. 2]
  Like you always  say...             die.                         
G|---------------|-----------------------------------------------|
D|-----rest------|-----------------------------------------------|
A|---------------|-----3-----3-----3-------2-/7---3------2-/7----|
E|---------------|--3-----3-----3-----3---------------3----------|


[Verse 3]
  And don't  swallow...  My boy, please   don't...           toy.
G|---------|---------------------------|---------------------------|
D|---------|-rest----------------------|---------------------------|
A|-3-------|---------------------------|-----2-/7--5--3-----2------|
E|----3----|---------------------------|--3--------------3---------|

[Chorus var. 3]
  Like you always   say...                                            
G|---------------|--------------------------------------------------|
D|-----rest------|--------------------------------------------------|
A|---------------|-----3-----3-----3-----3-----3-----3-----3-----3--|
E|---------------|--3-----3-----3-----3-----3-----3-----3-----3-----|

[Outro]
G|--------------------------------------------------------------|
D|--------------------------------------------------------------|
A|---2-/7----3-------2-/7----3-----2-/7----3------2-/7---3------|
E|-3------------3--------------3--------------3-------------3---|
            
Submit corrections

↑ Back to top | Tablatures and chords for acoustic guitar and electric guitar, ukulele, drums are parodies/interpretations of the original songs. You may use it for private study, scholarship, research or language learning purposes only