Home » L » Liquido »

Liquido - Catch Me Tabs

Artists:  A B C D E F G H I J K L M N O P Q R S T U V W X Y Z # 

Catch Me Tabs

(ver. 1) Click to play this song!
Liquido
Catch me – Liquido (intro)

e|--------------------------------------|
B|-5-----5-3------3----------3----------|
G|---5-5-----4-4----5-2-2-5----4--0-----|
D|--------------------------------------|
A|--------------------------------------|
E|--------------------------------------|

e|--------------------------------------|
B|-5-----5-3------3----------3----------|
G|---5-5-----4-4----5-2-2-5----4--0-----|
D|--------------------------------------|
A|--------------------------------------|
E|--------------------------------------|

e|--------------------------------------|
B|-5-----5-3------3----------3----------|
G|---5-5-----4-4----5-2-2-5----4--0-----|
D|--------------------------------------|
A|--------------------------------------|
E|--------------------------------------|

e|--------------------------------------|
B|-5-----5-3------3----------3----------|
G|---5-5-----4-4----5-2-2-5----4--0-----|
D|--------------------------------------|
A|--------------------------------------|
E|--------------------------------------|

e|--------------------------------------|
B|-5-----5-3------3----------3----------|
G|---5-5-----4-4----5-2-2-5----4--0-----|
D|--------------------------------------|
A|--------------------------------------|
E|--------------------------------------|

Here is the inro and verse part of all versus. I am still working on the chorus.
            
Submit corrections

↑ Back to top | Tablatures and chords for acoustic guitar and electric guitar, ukulele, drums are parodies/interpretations of the original songs. You may use it for private study, scholarship, research or language learning purposes only