Home » L » Link Wray »

Link Wray - Rumble Tabs

Artists:  A B C D E F G H I J K L M N O P Q R S T U V W X Y Z # 

Rumble Tabs

(ver. 1) Click to play this song!
Link Wray
e|--------------------------------------|
B|-------------3---3-----2----2---------|
G|--1---1------2---2-----2----2-----1---|   X2
D|--2---2----------------2----2-----2---|
A|--2---2---------------------------2---|
E|--------------------------------------|
 
e|-------------------------------|-----------------------------|-------------------------2-------|
B|--2--2----3--3---------2-------|--2--2----3--3---2--2--------|--2--2---3---3-----------0-------|
G|--2--2----2--2---1--1--2-------|--2--2----2--2---2--2----1---|--2--2---2---2---1---1---2-------|
D|--2--2-----------2--2--2-------|--2--2-----------2--2----2---|--2--2-----------2---2---1-------|
A|-----------------2--2----------|-------------------------2---|-----------------2---2---2-------|
E|-------------------------------|-----------------------------|---------------------------------|
 
e|---------------------|
B|----3----2-----------|
G|----2----2----1--1---|
D|---------2----2--2---|
A|--------------2--2---|
E|---------------------|
 
Repeat above X1, then 16th note strumming for three measures at 12th fret, last measure sliding from fret
below on each full beat as follows:
 
e|--12----------------|
B|--12----------------|   X3
G|--13----------------|
D|--------------------|
A|--------------------|
E|--------------------|
 
e|--------------------|
B|--------------------|
G|----1---------------|
D|----2---------------|
A|----2---------------|
E|--------------------|
 
e|--------------------------------------|
B|-------------3---3-----2----2---------|
G|--1---1------2---2-----2----2-----1---|
D|--2---2----------------2----2-----2---|
A|--2---2---------------------------2---|
E|--------------------------------------|
 
e|-----------------------2-----|----------------------|
B|---------3--3---3--3---0-----|---3---2--------------|
G|--1--1---3--2---3--3---2-----|---2---2---1-----1----|
D|--2--2----------3--3---1-----|-------2---2-----1----|
A|--2--2-----------------2-----|-----------2--2--2----|
E|-----------------------------|----------------------|
 
 
e|--------------------------------------|
B|-------------3---3-----2----2---------|
G|--1---1------2---2-----2----2-----1---|   X4
D|--2---2----------------2----2-----2---|
A|--2---2---------------------------2---|
E|--------------------------------------|
 
e|-------------------|
B|-------------------|
G|----1--------------|
D|----2--------------|
A|----2--------------|
E|-------------------|
            
Submit corrections

↑ Back to top | Tablatures and chords for acoustic guitar and electric guitar, ukulele, drums are parodies/interpretations of the original songs. You may use it for private study, scholarship, research or language learning purposes only