Home » L » Link Wray »

Link Wray - Big City After Dark Tabs

Artists:  A B C D E F G H I J K L M N O P Q R S T U V W X Y Z # 

Big City After Dark Tabs

(ver. 1) Click to play this song!
Link Wray
*) part A:

e|-000000--7--0-|-000000--7--0-|-000000--7--7--7--7--7--7--7--|
B|-000000--8b-0-|-000000--8b-0-|-000000--8b-8b-8b-8b-8b-8b-8b-|
G|--------------|--------------|------------------------------|
D|--------------|--------------|------------------------------|
A|--------------|--------------|------------------------------|
E|--------------|--------------|------------------------------|

*) part X:

e|-----5--------5-|-----5-------5---5---|-----0---0---0---0-----0-------|-----0-0-|
B|-----5-8-5-8b---|-----5-8-5-8---8---8-|-------------------------------|----0--0-|
G|----------------|---------------------|-3/4---4---4---3---3-2---2-0h1-|---1---1-|
D|----------------|---------------------|-------------------------------|--0----0-|
A|----------------|---------------------|-------------------------------|-2-----2-|
E|-0/5------------|-0/5-----------------|-------------------------------|---------|

*) part Y:

e|-----7----------7-|-----5-------5---5---|-----0---0---0---0-----0-------|-----2-2-|
B|-----7-10-7-10b---|-----5-8-5-8---8---8-|-------------------------------|----0--0-|
G|------------------|---------------------|-3/4---4---4---3---3-2---2-0h1-|---2---2-|
D|------------------|---------------------|-------------------------------|--1----1-|
A|------------------|---------------------|-------------------------------|-2-----2-|
E|-2/7--------------|-0/5-----------------|-------------------------------|---------|

*) part B:

e|-000000--7--7--|-0000------|-000000------------------|
B|-000000--8b-8b-|-0000--9\7-|-000000--6/7-6/7-6/7-6/7-|
G|---------------|-------9\7-|---------6/7-6/7-6/7-6/7-|
D|---------------|-----------|---------5/6-5/6-5/6-5/6-|
A|---------------|-----------|---------6/7-6/7-6/7-6/7-|
E|---------------|-----------|-------------------------|

*) part C:

e|-12-12-12-12-12-12--15b-12-|-12-12-12-12-12-12---------|-12-12-12-12-12-12--15b-15-12----------------|
B|-12-12-12-12-12-12--14b-12-|-12-12-12-12-12-12--14b-12-|-12-12-12-12-12-12--14b-------15-12----------|
G|---------------------------|---------------------------|------------------------------------14-12----|
D|---------------------------|---------------------------|------------------------------------------14-|
A|---------------------------|---------------------------|---------------------------------------------|
E|---------------------------|---------------------------|---------------------------------------------|


play as follows: 

    - part A
    - part X
    - part Y

    - part B
    - part X
    - part Y

    - part C
    - part X
    - part Y
            
Submit corrections

↑ Back to top | Tablatures and chords for acoustic guitar and electric guitar, ukulele, drums are parodies/interpretations of the original songs. You may use it for private study, scholarship, research or language learning purposes only