Home » L » Link Wray »

Link Wray - Apache Tabs

Artists:  A B C D E F G H I J K L M N O P Q R S T U V W X Y Z # 

Apache Tabs

(ver. 1) Click to play this song!
Link Wray
The song, as you might have already guessed, is
"Apache", from the legendary Link Wray
It has been transcribed into tablature by ear by yer friendly neighbourhood
Vabolo


._..._....__._..._...._



  First things first: if this is the first tab you've read, no need to be
ashamed, we've all been there! The only thing you'll need to know is that
when you see this:

G|--7b9r7--

The b ("bend") means that you play the note on the seventh fret of your G
string, aka D, and pull the string upwards (or downwards, I won't judge)
until it sounds like you're playing the ninth fret on the same string, aka
E. The r (release) simply means that you slack yer string back to how it was
before you bent it. Simple, right?

  Secondly, the bars I put in there almost never mean that you have an
actual musical bar between those lines. It's just to seperate the song into
segments that are easier to read (and therefore learn). I expect you to
learn the timing with the song, not with this ol' thing.


._..._....__._..._...._



Okay, now that that's outta the way, you've got yer little intro solo:

Trem-O-When?------NOW-----------------------NOW------

e|-----------------5-------|-----------------5-------|
B|---------------5---8-5---|---------------5---8-5---|
G|---5-7b9r7---5----------5|---5-7b9r7---5-----------|
D|-7-----------------------|-7-----------------------|
A|-------------------------|-------------------------|
E|-------------------------|-------------------------|

And then you dive straight into this mother hubbard:

.................x2...................................
e|-------------------|-------------------|-----------------|
B|-------------------|-------------------|-----------------|
G|-------------------|------7------------|-----------------|
D|------7------------|--7-----9--7-5-7---|------7----------|
A|--7-----9--7-5-7---|-------------------|--7-----9--7-5-7-|
E|-------------------|-------------------|-----------------|

e|------------------------|---------------------|-------------------------|
B|------------------------|---------------------|-------------------------|
G|-------------7-9-7------|--------------7------|--------------7-9-7------|
D|---7-10-9--10------10-7-|---7-10-9--10---8/10~|---7-10-9--10-------10-7-|
A|-8----------------------|-8-------------------|-8-----------------------|
E|------------------------|---------------------|-------------------------|

Followed by this galloping little nuumber:

e|------------|------|
B|------------|------|
G|------------|------|
D|------------|------|
A|---8-8-8-8--|-7~~--|
E|-8----------|------|


._..._....__._..._...._



Now, you've got all the essential ingredients to play he whole song! I'd put
the whole darn thing here, but that would only stop you from learning all
the little variations and use of the whammy-tremolo-vibrola-wadjammacallit

So get out there, plug yer cheapest guitar in yer cheapest amp, crank that
volume up to eleven, and wreck some good ol' fashioned havock!
            
Submit corrections

↑ Back to top | Tablatures and chords for acoustic guitar and electric guitar, ukulele, drums are parodies/interpretations of the original songs. You may use it for private study, scholarship, research or language learning purposes only