» » »

Linkin Park - Some Where I Belong Tabs

Artists:  A B C D E F G H I J K L M N O P Q R S T U V W X Y Z # 

Some Where I Belong Tabs

(ver. 3) Click to play this song!
Linkin Park
 Rating:
4/5 (4 votes)


 Some Where I Belong lessons Tabs too difficult? Try these video lessons and learn fast
 
                Linkin Park
Somewhere I Belong
Meteora
Acoustic
Standard Tuning

I have never heard this track played acoustic but I figured out the intro so I decided to tab the whole thing in easy chords. This is one of those songs that sound right on their own but when u try and play with the CD it doesn’t sound so good. If you want to play with the CD I suggest you play about with some of the verse riffs – but it sounds fine when u play it alone.

Chords Used:
E – 022100
G – 320033
Fmaj7 – 033210
Am – 002210
C – 032010
Dsus2 - 000233

Intro 1 – this is a DJ effect at the start but this sounds similar on guitar
E----------------------------------------------------------------------
B----------------------------------------------------------------------
G---------------------------------------------------------------------
D-----0---------------0---------------0----------------0-----------
A--2-----2--0----2-----2--0----2------2--0----2------2--0---
E----------------------------------------------------------------------

Intro 2 – this follows on from Intro 1 and is also played for the verse
E----------------------------------------------------------------------------------
B----------------------------------------------------------------------------------
G-------------2-------------------2------------------2-----------------2-------
D------2--------0---------2---------0-------2---------0------2---------0----
A--0------0-----------0------0----------0------0---------0------0-----------
E-----------------------------------------------------------------------------------

E----------------------------------------------------------------------------------
B----------------------------------------------------------------------------------
G-------------2-------------------2------------------2--------------------------
D------2--------0---------2---------0-------2---------0--0------------------
A--0------0-----------0------0----------0------0-----------------------------
E----------------------------------------------------------------------------------
Intro 3 – on the album track this would be the first heavy part of the song. Its also similar to the chorus.

Chords: E  E  G  G  Dsus2  Dsus2  E  E  x1       E  E  G  G  Am  Am  E  E x1 

Verse – at the end of the 3rd intro there is a small DJ part before the guitar goes into this (it’s the same as the 2nd intro)
E-----------------------------------------------------------------------------------
B-----------------------------------------------------------------------------------
G-------------2-------------------2------------------2-----------------2--------
D------2--------0---------2---------0-------2---------0------2---------0----
A--0------0-----------0------0----------0------0---------0------0-----------
E-----------------------------------------------------------------------------------

If you want to play chords for the verses its: E  G  C  E

Chorus – I have put the lyrics to help you with timing on the chorus but for the verse and bridge you should be able to work it out

	    E                    G               E                           G
I wanna heal, I wanna feel, what I thought was never real. 

             E                              Am     E  
I wanna let go of the pain ive felt so long (Erase all the pain till its gone)

             E                    G                E                          G 
I wanna heal, I wanna feel, like im close to something real

             E                           Am           E         C                  E
I wanna find something ive wanted all along. Somewhere I belong

Verse 2 (same as first verse)

Chorus (same as first chorus)

Bridge – you will have to listen to the track to get timing and the rhythm for this but the chords are easy to play

E  E  G  G  E  E  Am  Am  E x2          E  E  Dsus2  Dsus2  G  G  Am  Am  E x1

E  E  G  G  E  E  Am  Am  E x1 (strum once on the last E)

Again, there is a small Dj part before the chorus


Chorus (on the last chorus the end goes on for a bit longer so here it is)

             
    E                   G                     C                  E
I wanna heal, I wanna feel, like Im….. Somewhere I belong   x2

Outro – (similar to the rest of the song again but it just finishes it off nicely)
E  E  E  E  G  G x3   E  E  E  E x1 (on the last E don’t let it ring – the song comes to a dead stop)

Order
Intro 1	x2
Intro 2	x1
Intro 3	(the 2 parts together once)
Verse 1	x4
Chorus 1	x1
Verse 2	x1
Chorus 2	x1
Bridge	(the 3 parts together once – amount on each is shown at the end)
Chorus 3	x1
Outro 	(the 2 parts together once)

Lyrics
(When this began)
I had nothing to say 
And I get lost in the nothingness inside of me 
(I was confused) 
And I let it all out to find/
That I’m not the only person with these things in mind 
(Inside of me) 
But all the vacancy the words revealed 
Is the only real thing that I’ve got left to feel 
(Nothing to lose) 
Just stuck/ hollow and alone 
And the fault is my own, and the fault is my own 

[Chorus] 
I wanna heal, I wanna feel what I thought was never real 
I wanna let go of the pain I’ve felt so long
(Erase all the pain till it’s gone)
I wanna heal, I wanna feel like I’m close to something real
I wanna find something I’ve wanted all along 
Somewhere I belong 

And I’ve got nothing to say
I can’t believe I didn’t fall right down on my face 
(I was confused) 
Looking everywhere only to find
That it’s not the way I had imagined it all in my mind
(So what am I) 
What do I have but negativity 
’Cause I can’t justify the way, everyone is looking at me 
(Nothing to lose) 
Nothing to gain/ hollow and alone 
And the fault is my own, and the fault is my own 

[Repeat Chorus]

I will never know myself until I do this on my own
And I will never feel anything else, until my wounds are healed
I will never be anything till I break away from me
I will break away, I'll find myself today

[Repeat Chorus]

I wanna heal, I wanna feel like I’m somewhere I belong
I wanna heal, I wanna feel like I’m somewhere I belong
Somewhere I belong
            
Submit corrections



        Some Where I Belong lessons Hard to play? Try these video lessons and learn fast Some Where I Belong lessons
        
↑ Back to top | Tablatures and chords for acoustic guitar and electric guitar, ukulele, drums are parodies/interpretations of the original songs. You may use it for private study, scholarship, research or language learning purposes only