» » »

Linkin Park - I Want To Run Away Tabs

Artists:  A B C D E F G H I J K L M N O P Q R S T U V W X Y Z # 

I Want To Run Away Tabs

(ver. 1) Click to play this song!
Linkin Park
 Rating:
4/5 (4 votes)
                Hey again this is my second tab ever and they both are linkin park cuz
they kick ass! ne ways ill get to the song

the intro/basically the whole song needs no different tuning other than
standard EBGDAE


e-------------------------
b-------------------------
g-------------------------
d-4-4--7-7-7--------------
a-2-2--5-5-5--5-5--7-7-7--
e-------------3-3--5-5-5--

or

e---------------------------
b---------------------------
g---------------------------
d---------------------------
a-9-9--12-12-12--5-5--7-7-7-
e-7-7--10-10-10--3-3--5-5-5-
            
Submit corrections

↑ Back to top | Tablatures and chords for acoustic guitar and electric guitar, ukulele, drums are parodies/interpretations of the original songs. You may use it for private study, scholarship, research or language learning purposes only