Home » L » Lightning Seeds »

Lightning Seeds - Three Lions Tabs

Artists:  A B C D E F G H I J K L M N O P Q R S T U V W X Y Z # 

Three Lions Tabs

(ver. 1) Click to play this song!
Lightning Seeds
     [Intro]
         G    D    D/E  D/F# D/E  G    G/E  G/F# G/E  D    D/E  D/F# D/E  G    G/B  G/D  G    D
     d|--5#---4-4@---4@---4@---4@---0@---0@---0@---0@-4-4@---4@---4@---4@---0@---0@-0-0@-5-5--7-7£-7%--|
     b|--0----3-3----3----3----3----0----0----0----0--3-3----3----3----3----0--0-0--3-3--3-3--7-7--7---|
     g|--0----2-2----2----2----2----0----0----0----0--2-2----2----2----2----0--4-4----0----0----7--7---|
     D|--0----0----2----4----2----0----2----4----2----0----2----4----2----0---------------------7--7---|
     G|--0------------------------0---------------------------------------0---------------------7--7---|
     D|------------------------------------------------------------------------------------------------|

     [Pre-Verse]
     Part 1
         G   Bm  Em  A    D   F#m B   A     G   Bm  Em  A     D   F#m B   A
     d|--0---0---2---2--|-4---4---4---2--|--0---0---2---2--|--4---4---4---2--|
     b|--0---3---0---2--|-3---2---4---2--|--0---3---0---2--|--3---2---4---2--|
     g|--0---4---0---2--|-2---2---4---2--|--0---4---0---2--|--2---2---4---2--|
     D|--0---4---2---2--|-0---4---4---2--|--0---4---2---2--|--0---4---4---2--|
     G|--0---4---0---2--|---------4---2--|--0---4---0---2--|----------4---2--|
     D|----------2------|----------------|----------2------|-----------------|

     [Verse 1]
     Part 2
         Em  A   D   B      Em  A   D   B      Em  A   D   B
     d|--2---2---4---4---|--2---2---4---4---|--2---2---4---4%--|
     b|--0---2---3---4---|--0---2---3---4---|--0---2---3---4---|
     g|--0---2---2---4---|--0---2---2---4---|--0---2---2---4---|
     D|--2---2---0---4---|--2---2---0---4---|--2---2---0---4---|
     G|--0---2-------4---|--0---2-------4---|--0---2-------4---|
     D|--2---------------|--2---------------|--2---------------|

     [Chorus]
          *Part 1
         G   Bm  Em  A    D   F#m B   A     G   Bm  Em  A     D   F#m B   A
     d|--0---0---2---2--|-4---4---4---2--|--0---0---2---2--|--4---4---4---2--|
     b|--0---3---0---2--|-3---2---4---2--|--0---3---0---2--|--3---2---4---2--|
     g|--0---4---0---2--|-2---2---4---2--|--0---4---0---2--|--2---2---4---2--|
     D|--0---4---2---2--|-0---4---4---2--|--0---4---2---2--|--0---4---4---2--|
     G|--0---4---0---2--|---------4---2--|--0---4---0---2--|----------4---2--|
     D|----------2------|----------------|----------2------|-----------------|

     [Verse 2]
          *Part 2
         Em  A   D   B      Em  A   D   B    Em  A   D   B
     d|--2---2---4---4--|--2---2---4---4--|--2---2---4---4%--|
     b|--0---2---3---4--|--0---2---3---4--|--0---2---3---4---|
     g|--0---2---2---4--|--0---2---2---4--|--0---2---2---4---|
     D|--2---2---0---4--|--2---2---0---4--|--2---2---0---4---|
     G|--0---2-------4--|--0---2-------4--|--0---2-------4---|
     D|--2--------------|--2--------------|--2---------------|

     [Chorus]
          *Part 1
         G   Bm  Em  A    D   F#m B   A     G   Bm  Em  A     D   F#m B   A
     d|--0---0---2---2--|-4---4---4---2--|--0---0---2---2--|--4---4---4---2--|
     b|--0---3---0---2--|-3---2---4---2--|--0---3---0---2--|--3---2---4---2--|
     g|--0---4---0---2--|-2---2---4---2--|--0---4---0---2--|--2---2---4---2--|
     D|--0---4---2---2--|-0---4---4---2--|--0---4---2---2--|--0---4---4---2--|
     G|--0---4---0---2--|---------4---2--|--0---4---0---2--|----------4---2--|
     D|----------2------|----------------|----------2------|-----------------|

     [Bridge]
     Part 3A
         Em      C       F#m7    B         Em      C       F#m7    B
     d|--2-2---2-5-5-----2-2---2-4-4-----|-2-2---2-5-5-----2-2---2-4-4------|
     b|--0---0---5---5---2---2---4---4---|-0---0---5---5---2---2---4---4----|
     g|--0-------5-----5-2-------4-----4-|-0-------5-----5-2-------4-----4--|
     D|--2-------5-------4-------4-------|-2-------5-------4-------4--------|
     G|--0-------5---------------4-------|-0-------5---------------4--------|
     D|--2-------------------------------|-2--------------------------------|

     Part 3B
         Em  C   B
     d|--2---5---4))--|
     b|--0---5---4----|
     g|--0---5---4----|
     D|--2---5---4----|
     G|--0---5---4----|
     D|--2------------|

     Part 3C
         G    E/G  F#/G E/G    D    E/D  F#/D E/D  G    B/G  D/G  G    D
     d|----0@---0@---0@---0@---4-4@---4@---4@---4@---0@---0@-0-0@-5-5--7-7£-7%--|
     b|----0----0----0----0----3-3----3----3----3----0--0-0--3-3--3-3--7-7--7---|
     g|----0----0----0----0----2-2----2----2----2----0--4-4----0----0----7--7---|
     D|--0----2----4----2------0----2----4----2----0---------------------7--7---|
     G|--0-----------------------------------------0---------------------7--7---|
     D|-------------------------------------------------------------------------|

     [Outro]
          *Part 1 (to fade out)
         G   Bm  Em  A    D   F#m B   A     G   Bm  Em  A     D   F#m B   A
     d|--0---0---2---2--|-4---4---4---2--|--0---0---2---2--|--4---4---4---2--|
     b|--0---3---0---2--|-3---2---4---2--|--0---3---0---2--|--3---2---4---2--|
     g|--0---4---0---2--|-2---2---4---2--|--0---4---0---2--|--2---2---4---2--|
     D|--0---4---2---2--|-0---4---4---2--|--0---4---2---2--|--0---4---4---2--|
     G|--0---4---0---2--|---------4---2--|--0---4---0---2--|----------4---2--|
     D|----------2------|----------------|----------2------|-----------------|

         G   Bm  Em  A    D   F#m B   A     G   Bm  Em  A     D   F#m B   A
     d|--0---0---2---2--|-4---4---4---2--|--0---0---2---2--|--4---4---4---2--|
     b|--0---3---0---2--|-3---2---4---2--|--0---3---0---2--|--3---2---4---2--|
     g|--0---4---0---2--|-2---2---4---2--|--0---4---0---2--|--2---2---4---2--|
     D|--0---4---2---2--|-0---4---4---2--|--0---4---2---2--|--0---4---4---2--|
     G|--0---4---0---2--|---------4---2--|--0---4---0---2--|----------4---2--|
     D|----------2------|----------------|----------2------|-----------------|

         G   Bm  Em  A    D   F#m B   A     G   Bm  Em  A     D   F#m B   A
     d|--0---0---2---2--|-4---4---4---2--|--0---0---2---2--|--4---4---4---2--|
     b|--0---3---0---2--|-3---2---4---2--|--0---3---0---2--|--3---2---4---2--|
     g|--0---4---0---2--|-2---2---4---2--|--0---4---0---2--|--2---2---4---2--|
     D|--0---4---2---2--|-0---4---4---2--|--0---4---2---2--|--0---4---4---2--|
     G|--0---4---0---2--|---------4---2--|--0---4---0---2--|----------4---2--|
     D|----------2------|----------------|----------2------|-----------------|

         G   Bm  Em  A    D   F#m B   A     G   Bm  Em  A     D   F#m B   A
     d|--0---0---2---2--|-4---4---4---2--|--0---0---2---2--|--4---4---4---2--|
     b|--0---3---0---2--|-3---2---4---2--|--0---3---0---2--|--3---2---4---2--|
     g|--0---4---0---2--|-2---2---4---2--|--0---4---0---2--|--2---2---4---2--|
     D|--0---4---2---2--|-0---4---4---2--|--0---4---2---2--|--0---4---4---2--|
     G|--0---4---0---2--|---------4---2--|--0---4---0---2--|----------4---2--|
     D|----------2------|----------------|----------2------|-----------------|

            
Submit corrections

↑ Back to top | Tablatures and chords for acoustic guitar and electric guitar, ukulele, drums are parodies/interpretations of the original songs. You may use it for private study, scholarship, research or language learning purposes only