» » »

Lightning Seeds - Pure Tabs

Artists:  A B C D E F G H I J K L M N O P Q R S T U V W X Y Z # 

Pure Tabs

(ver. 1) Click to play this song!
Lightning Seeds
 Rating:
4/5 (4 votes)
                Lightning Seeds:Pure

Standard Tuning

This song's lead bits are pretty easy.Just listen to the song and you will quickly
work out the timings etc.Enjoy!

Intro and Verses

e----------------------------------------------------------------------------------|
B--9-10-12---9-10-12---9-10-12---9-10-12-----12-10-----12-10-----12-10-----12-10---|
G------------------------------------------9---------9---------9----------9--------|
D----------------------------------------------------------------------------------|
A----------------------------------------------------------------------------------|
E----------------------------------------------------------------------------------|


Chorus

e------------------------------------------9-------11--11------------12--|
B-9-10-12---12-10---9-10-12----12-10--9-10----9-10-------12-9----9-12----|
G---------9------------------9-------------------------------------------|
D------------------------------------------------------------------------|
A------------------------------------------------------------------------|
E------------------------------------------------------------------------|


Solo

e----------------------------------|
B----------------------------------|
G----------------------------------|
D---4-6-6----4-6-7-6-5-------------|  x 8
A----------------------------------|
E----------------------------------|


End with
e------9------11--11------------12-|
B-9-10---9-10-------12-9----9-12---|
G----------------------------------|
D----------------------------------|
A----------------------------------|
E----------------------------------|
            
Submit corrections

↑ Back to top | Tablatures and chords for acoustic guitar and electric guitar, ukulele, drums are parodies/interpretations of the original songs. You may use it for private study, scholarship, research or language learning purposes only