Home » L » Ligabue Luciano »

Ligabue Luciano - Balliamo Sul Mondo Bass

Artists:  A B C D E F G H I J K L M N O P Q R S T U V W X Y Z # 

Balliamo Sul Mondo Bass

(ver. 1) Click to play this song!
Ligabue Luciano
 Rating:
4/5 (4 votes)
                song title...: BALLIAMO SUL MONDO 
author.......: Luciano Ligabue
[to view the tab properly use a fixed-space font (i.e. courier new)]

This is a really good Italian rock song and I've tabbed it out. I know
that's not 100% correct, 'cause it's basic, but it works pretty well. 
Have a try. This is all you need.

Tuning: G,D,A,E

Verse

|--------------------------|--------------------------|
*--------------------------|--------------------------|
*--5--5--5--5--5--5--5-----|-----------------------2--|
|-----------------------5--|--3--3--3--3--3--3--3-----|

 --------------------------|--------------------------|
 --------------------------|--------------------------*
 --3--3--3--3--2--2--2--2--|--3--3--2--2--3--3--4--4--*
 --------------------------|--------------------------|

Chorus

|--------------------------|--------------------------|
*--------------------------|--------------------------|
*--5--5--5--5--5--5--5-----|-----------------------2--|
|-----------------------5--|--3--3--3--3--3--3--3-----|

 --------------------------|--------------------------|
 --------------------------|--------------------------*
 --3--3--3--3--2--2--2--2--|--0--0--0--0--0--0--0--0--*
 --------------------------|--------------------------|

Find out the rythm by yourself and feel free to add variations,
slides and what you want where you can think is useful.
For comments, suggestions, questions and so on, find me at:
Bye bye!    ROAR
            
Submit corrections

↑ Back to top | Tablatures and chords for acoustic guitar and electric guitar, ukulele, drums are parodies/interpretations of the original songs. You may use it for private study, scholarship, research or language learning purposes only