» » »

Lifelover - Karma Tabs

Artists:  A B C D E F G H I J K L M N O P Q R S T U V W X Y Z # 

Karma Tabs

(ver. 1) Click to play this song!
Lifelover
 Rating:
4/5 (4 votes)

 Karma lessons Tabs too difficult? Try these video lessons and learn fast
 
                Lifelover-Karma

NOTE: I tab this song by ear and This is My First Tab
an error in the verses play the times are necessary.

Tuning Drop C (CGCFAD)

D----------------------------------------------------|
A----------------------------------------------------| let ring...
F----------------------------------------------------|
C----------------------------------------------------|
G---0------------------------------------------------|
C---0------------------------------------------------|

Intro
D----------------------------------------------------|
A----------------------------------------------------| x1
F----------------------------------------------------|
C----------------------------------------------------|
G---0-0-0----1--0-0----------------------------------|
C---0-0-0----1--0-0---0--1h4--1h4--1h4--1h4--1h4-----|

D----------------------------------------------------|
A----------------------------------------------------| x7
F----------------------------------------------------|
C----------------------------------------------------|
G---0-0----1--0-0------------------------------------|
C---0-0----1--0-0---0--1h4--1h4--1h4--1h4--1h4-------|

D---------|
A---------| x14
F---------|
C---------|
G---------|
C---1h4---|

D-------------        D----------------------|
A-------------      A------------------------|
F-------------        F----------------------|
C-------------        C----------------------|
G--3h4-0------        G--111--4444-----------|
C--3h4-0------        C--111--4444-----------|
(----------------x2--------------------------|


D-------------        D-----------------------|
A-------------           A--------------------|
F-------------        F-----------------------|
C-------------        C-----------------------|
G--3h4-0------        G--1--4-----------------|
C--3h4-0------        C--1--4-----------------|
(----------------x2---------------------------|

D---------------------------------------------------|
A---------------------------------------------------|  x2
F---------------------------------------------------|
C---------------------------------------------------|
G-------------------1111-4444-5555-8888-6666-9999---|
C-11111111-44444444---------------------------------|


D--------|
A--------|
F--------|
C--------|
G--0-----|
C--0-----|

Verse 1
D--------------------------------------------------|
A--------------------------------------------------| x4
F--------------------------------------------------|
C-------7707--------7707--------7707--------770----|
G--0----5505---0----5505---0----5505---0----5503---|
C--0-----------0-----------0-----------0-------3---|

D---------------------------------------------------|
A---------------------------------------------------|  x2
F---------------------------------------------------|
C---------------------------------------------------|
G-------------------1111-4444-5555-8888-6666-9999---|
C-11111111-44444444---------------------------------|

Chorus
D--------------------------------------------------|
A--------------------------------------------------| x4
F--------------------------------------------------|
C--------------------------------------------------|
G-0000000000000000-77777777-8888-11-33-------------|
C-0000000000000000-77777777-8888-11-33-------------|

Verse 2
D-------------        D-------------------------|
A-------------       x6    A--------------------|
F-------------        F-------------------------|
C-------------        C-------------------------|
G--3h4-0------        G--111--4444--------------|
C--3h4-0------        C--111--4444--------------|
(----------------x2-----------------------------|

Chorus
D--------------------------------------------------|
A--------------------------------------------------| x4
F--------------------------------------------------|
C--------------------------------------------------|
G-0000000000000000-77777777-8888-11-33-------------|
C-0000000000000000-77777777-8888-11-33-------------|

Bridge 1
D------------------------------------------------|
A------------------------------------------------| x4
F------------------------------------------------|
C------------------------------------------------|
G-0-12--0-11--0-12--0-11--0-12--0-11--0-8-8-11---|
C-0-12--0-11--0-12--0-11--0-12--0-11--0-8-8-11---|

Bridge 2
D------------------------------------------------|
A------------------------------------------------| x4
F------------------------------------------------|
C------------------------------------------------|
G-0-12-12-11--0-12-12-11--0-12-12-11--0-8-8-11---|
C-0-12-12-11--0-12-12-11--0-12-12-11--0-8-8-11---|

Outro
D--------------------------------------------------|
A--------------------------------------------------| x1
F--------------------------------------------------|
C--------------------------------------------------|
G---0-0-0----1--0-0--------------------------------|
C---0-0-0----1--0-0---0--1h4--1h4--1h4--1h4--1h4---|

D--------------------------------------------------|
A--------------------------------------------------| x7
F--------------------------------------------------|
C--------------------------------------------------|
G---0-0----1--0-0----------------------------------|
C---0-0----1--0-0---0--1h4--1h4--1h4--1h4--1h4-----|

D---------|
A---------| x14
F---------|
C---------|
G---------|
C---1h4---|

D------------------------------------------------|
A------------------------------------------------| x4
F------------------------------------------------|
C------------------------------------------------|
G-00000000000000-77777777-8888-11-3333-----------|
C-00000000000000-77777777-8888-11-3333-----------|

End




The Tab Piano Sounds Like This...

Tuning Standard (EADGBe)

e------------|
B--13r-------| Repeat Necesary
G------------|
D------------|
A------------|
E------------|

Chorus
e------15--13-----------------15--13-------------------------|
B--13----------15--16---13------------15----16--15--16---13--|
G------------------------------------------------------------|
D------------------------------------------------------------|
A------------------------------------------------------------|
E------------------------------------------------------------|
            
Submit corrections


        Karma lessons Hard to play? Try these video lessons and learn fast Karma lessons
        
↑ Back to top | Tablatures and chords for acoustic guitar and electric guitar, ukulele, drums are parodies/interpretations of the original songs. You may use it for private study, scholarship, research or language learning purposes only