» » »

Lifelover - Androider Tabs

Artists:  A B C D E F G H I J K L M N O P Q R S T U V W X Y Z # 

Androider Tabs

(ver. 1) Click to play this song!
Lifelover
 Rating:
4/5 (4 votes)

 Androider lessons Tabs too difficult? Try these video lessons and learn fast
 
                Lifelover-Androider
Album-Dekadens
Year-2009


Tuning: Standard (EADGBe)

Intro Clean
e------------------------------------------------------|
B------------------------------------------------------|
G------------------------------------------------------|
D---------------------------33-x-333-x-333-x-33333-----|
A----55-x-555-x-555-x-55555-11-x-111-x-111-x-11111-----|
E----33-x-333-x-333-x-33333----------------------------|

With Distorsion (x4)
e------------------------------------------------------|
B------------------------------------------------------|
G---------------------------33-x-333-x-333-x-33333-----|
D----55-x-555-x-555-x-55555-33-x-333-x-333-x-33333-----|
A----55-x-555-x-555-x-55555-11-x-111-x-111-x-11111-----|
E----33-x-333-x-333-x-33333----------------------------|

e------------------------------------------------------|
B------------------------------------------------------|
G---------------------------33-x-333-x-333-x-333-------|
D----55-x-555-x-555-x-55555-33-x-333-x-333-x-33333-----|
A----55-x-555-x-555-x-55555-11-x-111-x-111-x-11133-----|
E----33-x-333-x-333-x-33333---------------------11-----|

Lead Guitar (starts when distorsion plays twice) x2
e----------------------------------------------|
B----------------------------------------------|
G----------------------------------------------|
D-----------------5555-------------------------|
A----555555555555------666666666666-55-33------|
E----------------------------------------------|

Verse
e----------------------------------------------|
B----------------------------------------------|
G----------------------------------------------|
D---------------------3333333333333333---------|
A----5555555555555555-1111111111111111---------|
E----3333333333333333--------------------------|

e----------------------------------------------|
B----------------------------------------------|
G----------------------------------------------|
D---------------------333333333333-------------|
A----5555555555555555-111111111111-3333--------|
E----3333333333333333--------------1111--------|

Chorus Rhythm
e----------------------------------------------|
B----------------------------------------------|
G----------------------------------------------|
D----------------------------------------------|
A----555555555555-7777-8888888888888888--------|
E----333333333333-5555-6666666666666666--------|

e----------------------------------------------|
B----------------------------------------------|
G----------------------------------------------|
D----------------------------------------------|
A----555555555555-7777-888888888888-3333-------|
E----333333333333-5555-666666666666-1111-------|

Chorus Lead
e----------------------------------------------|
B----------------------------------------------|
G-----------------------------------5555-------|
D----555555555555-7777-888888888888------------|
A----------------------------------------------|
E----------------------------------------------|

e----------------------------------------------|
B----------------------------------------------|
G----------------------------------------------|
D----555555555555-7777-------------------------|
A----------------------88888888-5555-6666------|
E----------------------------------------------|

Distorsion Again...

Lead Guitar Again...

Verse Again...

Chorus Rhythm Again...

Chorus Lead
e----------------------------------------------|
B----------------------------------------------|
G-----------------------------------5555-------|
D----555555555555-7777-888888888888------------|
A----------------------------------------------|
E----------------------------------------------|

e---------------------------------------------------------|
B---------------------------------------------------------|
G---------------------------------------------------------|
D----555555555555-7777------------------------------------|
A----------------------88888888-5555-6666-6~~~~~~~~~~~~~~-|
E---------------------------------------------------------|

e----------------------------|
B----------------------------|
G----------------------------|
D----------------------------|
A----6s10~~~~~~~~~~~~~~~~~---|
E----------------------------|

Interlude Rhythm
e-------------------------------------------------------------|
B-------------------------------------------------------------|
G-------7-----7-----7-----7-----7-----7-----7-----7-----------|
D-------------------------------------------------------------|
A----5-----5-----5-----5-----5-----5-----5------5-------------|
E-------------------------------------------------------------|

e-------------------------------------------------------------|
B-------------------------------------------------------------|
G--------12------12------12------12------8-----8-----8-----8--|
D-------------------------------------------------------------|
A----10------10------10------10-------6-----6-----6-----6-----|
E-------------------------------------------------------------|

Interlude Leader
e---------------------------------------------------------|
B---------------------------------------------------------|
G---------------------------------------------------------|
D-----------------------------------8--6--5---------------|
A----3--5--3--6------------5--6--5------------------------|
E---------------------------------------------------------|

Then Bridge (all guitars) x8
e---------------------------------------------------------|
B---------------------------------------------------------|
G---------------------33333333----------------------------|
D----3333333333333333-55555555-55555555-------------------|
A----5555555555555555----------77777777-------------------|
E---------------------------------------------------------|

e---------------------------------------------------------|
B---------------------------------------------------------|
G---------------------22222222----------------------------|
D----3333333333333333-33333333-55555555-------------------|
A----5555555555555555----------77777777-------------------|
E---------------------------------------------------------|

Outro
e----------------------------------------|
B----------------------------------------|
G----------------------------------------|
D----------------------------------------|
A---------------------11-111-111-11111---|
E----33-333-333-33333--------------------|

e----------------------------------------|
B----------------------------------------|
G----------------------------------------|
D----------------------------------------|
A---------------------11-111-111-111-----|
E----33-333-333-33333---------------11---|

e-----------------------------------------------|
B-----------------------------------------------|
G-----------------------------------------------|
D-----------------------------------------------|
A---------------------------11-111-111-11111----|
E----33-x-333-x-333-x-33333---------------------|

e-----------------------------------------------|
B-----------------------------------------------|
G-----------------------------------------------|
D-----------------------------------------------|
A---------------------11-111-111-11111----------|
E----33-333-333-33333---------------------------|
            
Submit corrections


        Androider lessons Hard to play? Try these video lessons and learn fast Androider lessons
        
↑ Back to top | Tablatures and chords for acoustic guitar and electric guitar, ukulele, drums are parodies/interpretations of the original songs. You may use it for private study, scholarship, research or language learning purposes only