» » »

Lifehouse - First Time Tabs

Artists:  A B C D E F G H I J K L M N O P Q R S T U V W X Y Z # 

First Time Tabs

(ver. 1) Click to play this song!
Lifehouse
 Rating:
4/5 (4 votes)

 First Time lessons Tabs too difficult? Try these video lessons and learn fast
 
                ----------------------

updated.

tuning: 1/2 step down <<--important!!

another great lifehouse song.
2 guitars playing but i tabbed for one.
saw the video and this is how its played.
enjoy!


intro: (x2)
-----

     Asus     Bsus        C#m7         E5
e|---0-0-0-0--0-0-0-0--|--0-0-0-0--0-0-0-0---|
B|---0-0-0-0--0-0-0-0--|--0-0-0-0--0-0-0-0---|
G|---9-9-9-9--9-9-9-9--|--9-9-9-9--9-9-9-9---|
D|---9-9-9-9--9-9-9-9--|--9-9-9-9--9-9-9-9---|
A|---0-0-0-0--x-x-x-x--|--x-x-x-x--6-6-7-7---|
E|------------7-7-7-7--|--9-9-9-9------------|


verse 1 & 2:
-----------

     Asus     Bsus        C#m7         E5
e|---0-0-0-0--0-0-0-0--|--0-0-0-0--0-0-0-0---|
B|---0-0-0-0--0-0-0-0--|--0-0-0-0--0-0-0-0---|
G|---9-9-9-9--9-9-9-9--|--9-9-9-9--9-9-9-9---|
D|---9-9-9-9--9-9-9-9--|--9-9-9-9--9-9-9-9---|
A|---0-0-0-0--x-x-x-x--|--x-x-x-x--6-6-7-7---|
E|------------7-7-7-7--|--9-9-9-9------------| (x3)
    we're both looking....

     Asus     Bsus        E
e|---0-0-0-0--0-0-0-0--|--0-0-0-0--0-0-0-0---|
B|---0-0-0-0--0-0-0-0--|--0-0-0-0--0-0-0-0---|
G|---9-9-9-9--9-9-9-9--|--9-9-9-9--9-9-9-9---|
D|---9-9-9-9--9-9-9-9--|--9-9-9-9--9-9-9-9---|
A|---0-0-0-0--x-x-x-x--|--7-7-7-7--7-7-7-7---|
E|------------9-9-9-9--|--0-0-0-0--0-0-0-0---|
     it's easier to hide...


bridge: (x2)
------

     F#7sus
e|---0-0-0-0--0-0-0-0--|--0-0-0-0--0-0-0-0---|
B|---0-0-0-0--0-0-0-0--|--0-0-0-0--0-0-0-0---|
G|---3-3-3-3--3-3-3-3--|--3-3-3-3--3-3-3-3---|
D|---4-4-4-4--4-4-4-4--|--4-4-4-4--4-4-4-4---|
A|---4-4-4-4--4-4-4-4--|--4-4-4-4--4-4-4-4---|
E|---2-2-2-2--2-2-2-2--|--2-2-2-2--2-2-2-2---|
     looking at you....

     Asus
e|---0-0-0-0--0-0-0-0--|--0-0-0-0--0-0-0-0---|
B|---0-0-0-0--0-0-0-0--|--0-0-0-0--0-0-0-0---|
G|---2-2-2-2--2-2-2-2--|--2-2-2-2--2-2-2-2---|
D|---2-2-2-2--2-2-2-2--|--2-2-2-2--2-2-2-2---|
A|---0-0-0-0--0-0-0-0--|--0-0-0-0--0-0-0-0---|
E|---------------------|---------------------|
    once in my life...


chorus:
------

(if u using distortion guitar [gtr2], do power chords)

     E5                   E/D#
e|---0-0-0-0--0-0-0-0--|--0-0-0-0--0-0-0-0---|
B|---0-0-0-0--0-0-0-0--|--0-0-0-0--0-0-0-0---|
G|---9-9-9-9--9-9-9-9--|--9-9-9-9--9-9-9-9---|
D|---9-9-9-9--9-9-9-9--|--9-9-9-9--9-9-9-9---|
A|---7-7-7-7--7-7-7-7--|--6-6-6-6--6-6-6-6---|
E|---------------------|---------------------|
   ..feeling alive..

     F#7sus               Asus     Bsus
e|---0-0-0-0--0-0-0-0--|--0-0-0-0--0-0-0-0---|
B|---0-0-0-0--0-0-0-0--|--0-0-0-0--0-0-0-0---|
G|---3-3-3-3--3-3-3-3--|--2-2-2-2--4-4-4-4---|
D|---4-4-4-4--4-4-4-4--|--2-2-2-2--4-4-4-4---|
A|---4-4-4-4--4-4-4-4--|--0-0-0-0--2-2-2-2---|
E|---2-2-2-2--2-2-2-2--|---------------------|
   ..deep as a scar..


verse 3: (x2)
-------

(if u using distortion guitar, do power chords)

     F#7sus
e|---0--0--0--0----0--0--0--0---|---0--0--0--0----0--0--0--0---|
B|---0--0--0--0----0--0--0--0---|---0--0--0--0----0--0--0--0---|
G|---11-11-11-11---11-11-11-11--|---11-11-11-11---11-11-11-11--|
D|---11-11-11-11---11-11-11-11--|---11-11-11-11---11-11-11-11--|
A|---9--9--9--9----9--9--9--9---|---9--9--9--9----9--9--9--9---|
E|------------------------------|------------------------------|
  ...crashing..

     Bsus
e|---0-0-0-0--0-0-0-0--|--0-0-0-0--0-0-0-0---|
B|---0-0-0-0--0-0-0-0--|--0-0-0-0--0-0-0-0---|
G|---4-4-4-4--4-4-4-4--|--4-4-4-4--4-4-4-4---|
D|---4-4-4-4--4-4-4-4--|--4-4-4-4--4-4-4-4---|
A|---2-2-2-2--2-2-2-2--|--2-2-2-2--2-2-2-2---|
E|---------------------|---------------------|
  ...the unknown...


some parts you have to repeat but thats pretty much it.
hope you enjoy.

this goes out to the B.O.B of usp.

kid©2007™
            
Submit corrections


        First Time lessons Hard to play? Try these video lessons and learn fast First Time lessons
        
↑ Back to top | Tablatures and chords for acoustic guitar and electric guitar, ukulele, drums are parodies/interpretations of the original songs. You may use it for private study, scholarship, research or language learning purposes only