Home » L » Levellers »

Levellers - Warning Bass

Artists:  A B C D E F G H I J K L M N O P Q R S T U V W X Y Z # 

Warning Bass

(ver. 1) Click to play this song!
Levellers
 Rating:
4/5 (4 votes)
                Bassist: Jeremy Cunningham

Love this song. An underated song from an underated band. The UKs best live act for years.
My first attempt at tabbing too.

Listen for the timings.


Main riff/fill
G --------------|------------------|
D --------------|------------------|
A --7/----------|---------5-3-2320-|
E ------0-22330-|-5-3-2320---------|


Chorus (x2)
G --------------------------------------|
D --------------------------------------|
A --2-2-22-2--2-2-22-5------------------|
E --------------------5-5-55-5-0-0-00-0-|


Main Riff/fill.
Chorus.

Middle
G -------|-------------|
D -------|-------------|
A -------|--7/---------|
E --0----|-----0-22330-|


Guitar Solo
G -------|----------------|
D -------|----------------|
A -------|-2------5-------|
E --0----|---------5----0-|

Chorus.

Main riff/fill.

Outro. Ring out on very last note.
G -------------------|------|
D -------------------|------|
A --2-2-22-2-2-2-22-2|------|
E -------------------|--0---|

Enjoy!
            
Submit corrections

↑ Back to top | Tablatures and chords for acoustic guitar and electric guitar, ukulele, drums are parodies/interpretations of the original songs. You may use it for private study, scholarship, research or language learning purposes only