Home » L » Levellers »

Levellers - The Game Bass

Artists:  A B C D E F G H I J K L M N O P Q R S T U V W X Y Z # 

The Game Bass

(ver. 1) Click to play this song!
Levellers
 Rating:
4/5 (4 votes)
                this song is amazin and the bass tab me ages work 
out so please rate it. 


intro
BASS COMES IN AT 7 SECONDS 

G ---------------33----33------3
D -------33--55----33------33---
A --355-------------------------  x2
E 35----------------------------

VERSE

G -------------33----33------3--
D -----33--55----33------33-----
A -55---------------------------  x2
E ------------------------------

BRIDGE 32 SECONDS

G -----------33----
D --335555555----5~
A 55-----------33--
E------------------

CHORUS

G --33------------33----33-------3355777753-
D ------------------33---------------------5
A 55--555555555-55----55--55555555----------
E ------------------------------------------

WELL THATS BOUT IT FOLKS PLEASE RATE THIS TAB. AND FIGURE OUT THE ORDER YASELF
            
Submit corrections

↑ Back to top | Tablatures and chords for acoustic guitar and electric guitar, ukulele, drums are parodies/interpretations of the original songs. You may use it for private study, scholarship, research or language learning purposes only