» » »

Levellers - Likes Of You And I Bass

Artists:  A B C D E F G H I J K L M N O P Q R S T U V W X Y Z # 

Likes Of You And I Bass

(ver. 1) Click to play this song!
Levellers
 Rating:
4/5 (4 votes)

 Likes Of You And I lessons Tabs too difficult? Try these video lessons and learn fast
 
                Track: The Likes Of You And I
Bassist: Jeremy Cunningham

This tab is 99% correct as far as I can tell, there may be some passing notes
in the breakdown that I didn't get but otherwise its all good.
Happy playing.

Verse.
G -----------------------------------|
D -----------------------------------|
A --------------3---5-5550-05-5550---|
E --5-55750-3-33-33------------------|

Chorus.(x2)
G ------------------|--------|
D ------------------|--------|
A --------------5-5-|-3-(3)--|
E --5-5-5-5-3-3-----|--------|

Verse.
Chorus.

Bass/Drums/Violin
G -----------------------------------|
D -----------------------------------|
A --------------3---5-5550005-5550---|
E --5-55750-3-33-33------------------|

Verse.

Chorus.(x4)
G -------------------|
D -------------------|
A --------------5-5--|
E --5-5-5-5-3-3------|

End on.

G ----
D ----
A -3--
E ----

Viva disorder!
            
Submit corrections


        Likes Of You And I lessons Hard to play? Try these video lessons and learn fast Likes Of You And I lessons
        
↑ Back to top | Tablatures and chords for acoustic guitar and electric guitar, ukulele, drums are parodies/interpretations of the original songs. You may use it for private study, scholarship, research or language learning purposes only