Home » L » Levellers »

Levellers - Far Away Bass

Artists:  A B C D E F G H I J K L M N O P Q R S T U V W X Y Z # 

Far Away Bass

(ver. 1) Click to play this song!
Levellers
 Rating:
4/5 (4 votes)
                ----------------------------------------------

4-stringer in stanbard tuning (EADG) is all you need for this one. It don't
get much easier than this either.

Intro - no bass

Verse riff:

-|------------------------------------------------------------------|-
-|.-----------------------------------------------------------------|-
-|.-----------------------------------------------------------------|-
-|--5-5-5-5-5-5-5-5-5-5-5-5-5-5-5-5-5-5-5-5-3-3-3-3-1-1-1-1-1-1-1-1-|-

-|------------------|-
-|-----------------.|-
-|-----------------.|-
-|-1-1-1-1-1-1-1-1--|-

Pre-Chorus/Chorus riff:

-|-----------------------------------|-
-|.---------------------------------.|-
-|.---------------------------------.|-
-|--8-8-8-8-3-3-3-3-1-1-1-1-1-1-1-1--|-

Build up:

-|-----------------|-
-|-----------------|-
-|-----------------|-
-|-1-1-1-1-1-1-1-1-|-

End of Chorus

-|-----------------------------------|-
-|.---------------------------------.|-
-|.---------------------------------.|-
-|--8-8-8-8-3-3-3-3-1-1-1-1-1-1-1/8--|-

Arrangement (as if you need help working this one out!)
Intro
Verse x2
Pre-Chorus x2
Buildup x1
Chorus x3
Endo of Chorus x1
Verse x2
Pre-Chorus x2
Build Up x1
Chorus x3
End Of Chorus x1
Verse x2
Pre-Chorus x2
Build Up x1
Chorus x5
End of Chorus x1
Verse a whole load of times to finish

That's it. Quite possibly the easiest song ever. 

Enjoy,

DAN
            
Submit corrections

↑ Back to top | Tablatures and chords for acoustic guitar and electric guitar, ukulele, drums are parodies/interpretations of the original songs. You may use it for private study, scholarship, research or language learning purposes only