» » »

Levellers - Belaruse Tabs

Artists:  A B C D E F G H I J K L M N O P Q R S T U V W X Y Z # 

Belaruse Tabs

(ver. 1) Click to play this song!
Levellers
 Rating:
4/5 (4 votes)

 Belaruse lessons Tabs too difficult? Try these video lessons and learn fast
 
                #------------------------------------------------------------------------------##
#



Belaruse by The Levellers

Riff 1
   E5    G  E5
e---------------------------|
B---------------------------|
G---------------------------|(I think there is an acustic guitar)
D--------0------------------|(playing an E-chord under this riff)
A--2--2--2--2--2--2--2--2---|
E--0--0--3--0--0--0--0--0---|


Riff 2
e-------------------------------------------------|
B-------------------------------------------------|
G-------------------------------------------------|
D-------------------------------------------------|
A---------5-----------5-----------7-----------7---|
E-0-0-0-0-3-0-0-0-0-0-3-0-0-0-0-0-5-0-0-0-0-0-5-0-|


e-----------------------------------------|
B-----------------------------------------|
G-----------------------------------------|
D-----------------------------------------|
A---------9-----------9---9---7---5---4---|
E-0-0-0-0-7-0-0-0-0-0-7---7---5---3---2---|
                                      ^unsure about this

First just bass and drums for 8 measures
then Riff 1 eight times

Verse 1:
(just bass or drums (you can palmmute E if you want))
Belaruse no longer feels the sun but its under the skin of everyone
Belaruse forgotten by the blind that is until the next time

Chorus:
E                 G          A           G
Remember all your yesterdays in the deep blue
           E              G            A     G
Before the world came and rested there oooon you

Riff 1 x4

Verse 2:
(same as verse 1)
And if the sun and moon were both to ??? sure enough they both go out
when you can't walk in your field feel water in your hand you've been
      touched by the doubt of man

CHORUS

riff 2 x3

riff 1 x3

riff 2 x1

CHORUS

Bass and drums two measures

Riff 2 x4
End on E5

I think thats pretty correct.
Corrections are, of course, welcome.
UBV CHILE
            
Submit corrections


        Belaruse lessons Hard to play? Try these video lessons and learn fast Belaruse lessons
        
↑ Back to top | Tablatures and chords for acoustic guitar and electric guitar, ukulele, drums are parodies/interpretations of the original songs. You may use it for private study, scholarship, research or language learning purposes only