» » »

Levellers - Beautiful Day Bass

Artists:  A B C D E F G H I J K L M N O P Q R S T U V W X Y Z # 

Beautiful Day Bass

(ver. 1) Click to play this song!
Levellers
 Rating:
4/5 (4 votes)

 Beautiful Day lessons Tabs too difficult? Try these video lessons and learn fast
 
                Tabbed by: ChrisT

From the Album: One Way of Life: Best of (1998)

Tuning: Standard

Chorus
G|------------------------------------------------------------------|
D|------------------------------------------------------------------|
A|------------------------------------------------------------------|
E|---5---5---5---5---5-2-4-5---4---2---2---2---0---2---2---4-2-0----|

G|-----------7---------------9----------------------------------|
D|-------7-------7-------9-------9------------------------------|
A|---5---------------7---------------9---7---5------------------|
E|-----------------------------------------------9---2----------|

Verse
G|--------------------------------------------------------------|
D|--------------------------------------------------------------|
A|-----------------------------4---4-2-4-2---4---4-2-4-2---4----|
E|---2---2-0-2---2-0-2---2-4-5-------------4-------------4------|

G|--------------------------------------------------------------------|
D|--------------------------------------------------------------------|
A|---5---5-4-5-4-----7---7-5-7-5-----9---9-7-9-7-5---9---7---5--------|
E|---------------5---------------7-----------------9-------------9----|

G|--------------------------------------------------------------|
D|--------------------------------------------------------------|
A|-----------------------------4---4-2-4-2---4---4-2-4-2---4----|
E|---2---2-0-2---2-0-2---2-4-5-------------4-------------4------|

G|--------------------------------------------------------------|
D|--------------------------------------------------------------|
A|---5---5-4-5-4-----7---7-5-7-5-----9---7---5------------------|
E|---------------5---------------7---------------9--2-----------|

Chorus
G|------------------------------------------------------------------|
D|------------------------------------------------------------------|
A|------------------------------------------------------------------|
E|---5---5---5---5---5-2-4-5---4---2---2---2---0---2---2---4-2-0----|

G|-----------7---------------9----------------------------|
D|-------7-------7-------9-------9------------------------|
A|---5---------------7---------------9---7---5------------|
E|-----------------------------------------------9---2----|

Instrumental
G|--------------------------------------------------------------|
D|--------------------------------------------------------------|
A|-----------------------------4---4-2-4-2---4---4-2-4-2---4----|
E|---2---2-0-2---2-0-2---2-4-5-------------4-------------4------|

G|--------------------------------------------------------------------|
D|--------------------------------------------------------------------|
A|---5---5-4-5-4-----7---7-5-7-5-----9---9-7-9-7-5---9---7---5--------|
E|---------------5---------------7-----------------9-------------9----|

Verse
G|--------------------------------------------------------------|
D|--------------------------------------------------------------|
A|-----------------------------4---4-2-4-2---4---4-2-4-2---4----|
E|---2---2-0-2---2-0-2---2-4-5-------------4-------------4------|

G|--------------------------------------------------------------------|
D|--------------------------------------------------------------------|
A|---5---5-4-5-4-----7---7-5-7-5-----9---9-7-9-7-5---9---7---5--------|
E|---------------5---------------7-----------------9-------------9----|

G|--------------------------------------------------------------|
D|--------------------------------------------------------------|
A|-----------------------------4---4-2-4-2---4---4-2-4-2---4----|
E|---2---2-0-2---2-0-2---2-4-5-------------4-------------4------|

G|--------------------------------------------------------------|
D|--------------------------------------------------------------|
A|---5---5-4-5-4-----7---7-5-7-5-----9---7---5------------------|
E|---------------5---------------7---------------9--2-----------|

Chorus
G|------------------------------------------------------------------|
D|------------------------------------------------------------------|
A|------------------------------------------------------------------|
E|---5---5---5---5---5-2-4-5---4---2---2---2---0---2---2---4-2-0----|

G|-----------7---------------9----------------------------------------|
D|-------7-------7-------9-------9------------------------------------|
A|---5---------------7---------------9---7---5---------------5---4----|
E|-----------------------------------------------9---2---2------------|

G|------------------------------------------------------------------|
D|------------------------------------------------------------------|
A|------------------------------------------------------------------|
E|---5---5---5---5---5-2-4-5---4---2---2---2---0---2---2---4-2-0----|

G|-----------7-------9----------------------------------------------|
D|-------7-------7-------9------------------------------------------|
A|---5-----------------------7--------------------------------------|
E|-------------------------------7---2------------------------------|

Verse (No Bass)
G|------------------------------------------------------------------|
D|------------------------------------------------------------------|
A|------------------------------------------------------------------|
E|------------------------------------------------------------------|

Instrumental
G|--------------------------------------------------------------|
D|--------------------------------------------------------------|
A|-----------------------------4---4-2-4-2---4---4-2-4-2---4----|
E|---2---2-0-2---2-0-2---2-4-5-------------4-------------4------|

G|--------------------------------------------------------------|
D|--------------------------------------------------------------|
A|---5---5-4-5-4-----7---7-5-7-5-----9---7---5------------------|
E|---------------5---------------7---------------9--2-----------|

Verse
G|--------------------------------------------------------------|
D|--------------------------------------------------------------|
A|-----------------------------4---4-2-4-2---4---4-2-4-2---4----|
E|---2---2-0-2---2-0-2---2-4-5-------------4-------------4------|

G|--------------------------------------------------------------------|
D|--------------------------------------------------------------------|
A|---5---5-4-5-4-----7---7-5-7-5-----9---9-7-9-7-5---9---7---5--------|
E|---------------5---------------7-----------------9-------------9----|

G|--------------------------------------------------------------|
D|--------------------------------------------------------------|
A|-----------------------------4---4-2-4-2---4---4-2-4-2---4----|
E|---2---2-0-2---2-0-2---2-4-5-------------4-------------4------|

G|--------------------------------------------------------------|
D|--------------------------------------------------------------|
A|---5---5-4-5-4-----7---7-5-7-5-----9---7---5------------------|
E|---------------5---------------7---------------9--2-----------|

Chorus
G|------------------------------------------------------------------|
D|------------------------------------------------------------------|
A|------------------------------------------------------------------|
E|---5---5---5---5---5-2-4-5---4---2---2---2---0---2---2---4-2-0----|

G|-----------7---------------9----------------------------------------|
D|-------7-------7-------9-------9------------------------------------|
A|---5---------------7---------------9---7---5---------------5---4----|
E|-----------------------------------------------9---2---2------------|

G|------------------------------------------------------------------|
D|------------------------------------------------------------------|
A|------------------------------------------------------------------|
E|---5---5---5---5---5-2-4-5---4---2---2---2---0---2---2---4-2-0----|

G|-----------7---------------9--------------------------------------|
D|-------7-------7-------9-------9----------------------------------|
A|---5---------------7---------------9-9-7-----7-9---7---5----------|
E|-----------------------------------------9-9---------------9------|

G|-----------7---------------9--------------------------------------|
D|-------7-------7-------9-------9----------------------------------|
A|---5---------------7---------------9-9-7-----7-9---7---5----------|
E|-----------------------------------------9-9---------------9------|

G|-----------7-------9----------------------------------------------|
D|-------7-------7-------9------------------------------------------|
A|---5-----------------------7--------------------------------------|
E|-------------------------------7---2------------------------------|





            
Submit corrections


        Beautiful Day lessons Hard to play? Try these video lessons and learn fast Beautiful Day lessons
        
↑ Back to top | Tablatures and chords for acoustic guitar and electric guitar, ukulele, drums are parodies/interpretations of the original songs. You may use it for private study, scholarship, research or language learning purposes only