Home » L » Lettermen »

Lettermen - Time Was Duerme Bass

Artists:  A B C D E F G H I J K L M N O P Q R S T U V W X Y Z # 

Time Was Duerme Bass

(ver. 1) Click to play this song!
Lettermen
 Rating:
4.4/5 (8 votes)
                Tuning: EADG

G|----------------------------------------------------------------|
D|4-------------------------------4-------------------------------| x2
A|----------------------------------------------------------------|
E|----------------------------------------------------------------|

0:12

G|--------------------------------4---------------4---------------|
D|4---------------4-----------------------------------------------|
A|----------------------------------------------------------------|
E|----------------------------------------------------------------|

G|--------------------------------4---------------4-----------4---|
D|4---------------4-----------------------------------------------|
A|----------------------------------------------------------------|
E|----------------------------------------------------------------|

G|3---------------------------------------------------------------|
D|----------------1---------------6-------------------------------|
A|------------------------------------------------4---------------|
E|----------------------------------------------------------------|

G|------------------------3---------------------------------------|
D|4---------------4---------------6---------------------------3---|
A|------------------------------------------------4---------------|
E|----------------------------------------------------------------|

0:36

G|--------------------------------4---------------4---------------|
D|4---------------4-----------------------------------------------|
A|----------------------------------------------------------------|
E|----------------------------------------------------------------|

G|--------------------------------4---------------4-----------4---|
D|4---------------4-----------------------------------------------|
A|----------------------------------------------------------------|
E|----------------------------------------------------------------|

G|3---------------------------------------------------------------|
D|----------------1---------------6-------------------------------|
A|------------------------------------------------4---------------|
E|----------------------------------------------------------------|

G|------------------------------------------------------------2---|
D|4-------------------------------4-----------1-2-3---------------|
A|----------------2-----------------------------------------------|
E|----------------------------------------------------------------|

0:59

G|3---------------------------------------------------------------|
D|----------------5-------------------------------3---------------|
A|--------------------------------3---------------------------0---|
E|----------------------------------------------------------------|

G|----------------------------------------------------------------|
D|------------------------------------------------3---------------|
A|1---------------2---------------3-------------------------------|
E|----------------------------------------------------------------|

G|----------------------------------------------------------------|
D|--------------------------------3---------------4-------6-------|
A|4---------------6-----------------------------------------------|
E|----------------------------------------------------------------|

G|6---------------------------------------------------------------|
D|------------8-7-6---------------------------------------3-------|
A|--------------------------------4---------------4---------------|
E|----------------------------------------------------------------|

1:23

G|--------------------------------4---------------4---------------|
D|4---------------4-----------------------------------------------|
A|----------------------------------------------------------------|
E|----------------------------------------------------------------|

G|--------------------------------4---------------4-----------4---|
D|4---------------4-----------------------------------------------|
A|----------------------------------------------------------------|
E|----------------------------------------------------------------|

G|3-------------------|
D|----------------1---|
A|--------------------|
E|--------------------|
            
Submit corrections

↑ Back to top | Tablatures and chords for acoustic guitar and electric guitar, ukulele, drums are parodies/interpretations of the original songs. You may use it for private study, scholarship, research or language learning purposes only