» » »

Lettermen - Morning Girl Bass

Artists:  A B C D E F G H I J K L M N O P Q R S T U V W X Y Z # 

Morning Girl Bass

(ver. 1) Click to play this song!
Lettermen
 Rating:
4.4/5 (5 votes)

 Morning Girl lessons Tabs too difficult? Try these video lessons and learn fast
 
                
G|--------------------------------------------------------5-------|
D|--------------------------------3-----------3---3-----------3---| x2
A|3-----------3---3-----------3-----------------------------------|
E|----------------------------------------------------------------|

0:13

G|----------------5-----------5---4-----------4---4-------4-------|
D|----------------------------------------------------------------|
A|3-----------3---------------------------------------------------|
E|----------------------------------------------------------------|

G|2-----------2---2-------2-------------------------------4-------|
D|--------------------------------2-----------2---2-----------2---|
A|----------------------------------------------------------------|
E|----------------------------------------------------------------|

G|----------------------------------------------------------------|
D|3-----------3---3-----------3-----------------------------------|
A|--------------------------------3-----------3---3-----------3---|
E|----------------------------------------------------------------|

G|----------------------------------------------------------------|
D|3-----------3---3-----------3-----------------------------------|
A|--------------------------------3-----------3---3-------3---3---|
E|----------------------------------------------------------------|

G|--------------------------------|
D|3-----------3---2-----------2---|
A|--------------------------------|
E|--------------------------------|

G|2-----------2---0-----------0-----------------------------------|
D|--------------------------------4-----------4---3-------3---3---|
A|----------------------------------------------------------------|
E|----------------------------------------------------------------|

0:47

G|----------------5---------------4-----------4---4-----------4---|
D|----------------------------------------------------------------|
A|3-----------3---------------------------------------------------|
E|----------------------------------------------------------------|

G|2-----------2---2-------2---2---------------------------4-------|
D|--------------------------------2-----------2---2-----------2---|
A|----------------------------------------------------------------|
E|----------------------------------------------------------------|

G|----------------------------------------------------------------|
D|3-----------3---3-------3---------------------------------------|
A|--------------------------------3-----------3---3-------3-------|
E|----------------------------------------------------------------|

G|----------------------------------------------------------------|
D|3-----------3---3-------3---------------------------------------|
A|--------------------------------3-----------3---3-------3---3---|
E|----------------------------------------------------------------|

G|--------------------------------|
D|3-----------3---2-----------2---|
A|--------------------------------|
E|--------------------------------|

G|2-----------2---0-----------0-----------------------------------|
D|--------------------------------4-----------4---3-----------3---|
A|----------------------------------------------------------------|
E|----------------------------------------------------------------|

1:19

G|------------9-----------9---------------------------------------|
D|2-------2-------7-----------7-------------------5-------5---5---|
A|--------------------------------5-----------5-------------------|
E|----------------------------------------------------------------|

G|--------------------------------|
D|----------------7-------7-------|
A|7-----------7-------------------|
E|--------------------------------|

G|----------------------------------------------------------------|
D|----------------------------------------9-------------------7---|
A|5-----------5---8-----------8---7-----------7-------------------|
E|------------------------------------------------5-------5-------|

G|----------------------------------------------------------------|
D|--------------------------------5-----------5---5-------5---5---|
A|5-----------5---5-------5---------------------------------------|
E|----------------------------------------------------------------|

1:40

G|5-----------5---5-----------5---4-----------4---4-------4---4---|
D|----------------------------------------------------------------|
A|----------------------------------------------------------------|
E|----------------------------------------------------------------|

G|2-----------2---2-----------2---------------------------4-------|
D|--------------------------------2-----------2---2-----------2---|
A|----------------------------------------------------------------|
E|----------------------------------------------------------------|

G|----------------------------------------------------------------|
D|3-----------3---3-----------3-----------------------------------|
A|--------------------------------3-----------3---3-------3---3---|
E|----------------------------------------------------------------|

G|------------------------------------------------------------5---|
D|3-----------3---3-----------3-----------------------------------|
A|--------------------------------3-----------3---3-------3-------|
E|----------------------------------------------------------------|

G|--------------------------------|
D|3-----------3---2-------2---2---|
A|--------------------------------|
E|--------------------------------|

G|2-----------2---0-------0---0-----------------------------------|
D|--------------------------------4-----------4---4-------4---4---|
A|----------------------------------------------------------------|
E|----------------------------------------------------------------|

G|--------------------------------|
D|3-------------------------------|
A|--------------------------------|
E|--------------------------------|

2:16 Until fadeout.

G|--------------------------------------------------------5-------|
D|--------------------------------3-----------3---3-----------3---|
A|3-----------3---3-----------3-----------------------------------|
E|----------------------------------------------------------------|            
Submit corrections


        Morning Girl lessons Hard to play? Try these video lessons and learn fast Morning Girl lessons
        
↑ Back to top | Tablatures and chords for acoustic guitar and electric guitar, ukulele, drums are parodies/interpretations of the original songs. You may use it for private study, scholarship, research or language learning purposes only