» » »

Leprous - Stuck Bass

Artists:  A B C D E F G H I J K L M N O P Q R S T U V W X Y Z # 

Stuck Bass

(ver. 1) Click to play this song!
Leprous
 Rating:
4.3/5 (13 votes)

 Stuck lessons Tabs too difficult? Try these video lessons and learn fast
 
                
[Intro]
|---------------------------------|---------------------------------|
|---------------------------------|---------------------------------|
|---------------------------------|-5-----5-----5-7-8-----7-\---3-2-|
|-5---5---5-5-0-1-----1-----1-1-/-|---------------------------------|
|---------------------------------|---------------------------------|

|---------------------------------|---------------------------------|------|
|---------------------------------|---------------------------------|------|
|---------------------------------|-5-----5-----3-5-------5-----3-2-|-0----|
|-5---5---5-5-0-1-----1-----1-1-/-|-----------------4---------------|------|
|---------------------------------|---------------------------------|------|

|-----|-----------------------------------|    |---------------------------------|
|-----|o---------------------------------o|    |---------------------------------|
|-----|-----------------------------------|[x3]|---------------------------------|
|-5---|o-5-5-5-5-5-5-5-5-5-5-5-5-5-5-5-5-o|    |-5-5-5-5-5-5-5-5-5-5-5-5-5-3---0-|
|-----|-----------------------------------|    |---------------------------------|

[Verse 1]
|---------------------------------|---------------------------------|
|---------------------------------|---------------------------------|
|---------------------------------|---------------------------------|
|-5---5---------0-5---5---5-3---0-|-1---1---------0-1---1---3-5---5-|
|---------------------------------|---------------------------------|

|---------------------------------|---------------------------------|
|---------------------------7-----|---------------------------------|
|-5---5---------0-5---5---5-----0-|-3---3---------3-----------7-----|
|---------------------------------|-----------------4---4---4-----0-|
|---------------------------------|---------------------------------|

|---------------------------------|---------------------------------|
|---------------------------------|---------------------------------|
|---------------------------3-----|---------------------------------|
|-5---5---------0-5---5---5-----0-|-1---1---------0-1---1---3-5---5-|
|---------------------------------|---------------------------------|

|---------------------------------|---------------------------------|
|---------------------------7-----|-------------------5-------------|
|-5---5---------0-5---5---5---5-0-|-3---3---------5-7---7-\-5-3-----|
|---------------------------------|-----------------------------5-3-|
|---------------------------------|---------------------------------|

|---------------------------------|---------------------------------|
|---------------------------------|---------------------------3-----|
|---------------------------------|-------------------------------0-|
|-5---5---------0-5---5---5-----3-|-1---1---------0-1---1---1-------|
|---------------------------3-5---|---------------------------------|

|---------------------------------|---------------------------------|
|---------------------------------|---------------------------------|
|-5---5---------0-5---5---5-5---0-|-3---3-~-------------------------|
|---------------------------------|---------------0-4---4---4---4-/-|
|---------------------------------|---------------------------------|

[Pre-Chorus]
|---------------------------------|---------------------------------|
|---------------------------------|---------------------------------|
|-8-8-8-8-8-8-8-8-8-8-8-8-8-8-8-8-|-5-5-5-5-5-5-5-5-5-5-5-5-5-5-5-5-|
|---------------------------------|---------------------------------|
|---------------------------------|---------------------------------|

|---------------------------------|---------------------------------|
|---------------------------------|-------------------------8-8-8-8-|
|-3-3-3-3-3-3-3-3-3-3-3-3-3-3-3-3-|-2-2-2-2-2-2-2-2-1-1-1-1/--------|
|---------------------------------|---------------------------------|
|---------------------------------|---------------------------------|

[Verse 2]
|---------------------------------|---------------------------------|
|---------------------------5/7---|---------------------------------|
|-------------------------------7-|-8---8---8-8---8-----------------|
|-5---5---5-5---5-5---5---5-------|---------------------------5-7-8-|
|---------------------------------|-----------------6---6-6-6-------|

|---------------------------------|---------------------------------|
|---------------------------------|---------------------------------|
|-5---5---5-5---0-5---5---5-7---0-|-3---3---3-3---3-----------------|
|---------------------------------|-----------------4---4---4-4-0-4-|
|---------------------------------|---------------------------------|

|---------------------------------|---------------------------------|
|-------------------------------5-|---------------------------------|
|-------------------------5-7-----|-8-------------------------------|
|-5---5---5-5---5-5---5-----------|---------------------------------|
|---------------------------------|-----6---6-6---6-6---6---6-7---6-|

|---------------------------------|---------------------------------|
|---------------------------------|---------------------------------|
|-5---5---5-5---5-5---5---5-5---5-|-3---3---3-3-3-3-----------------|
|---------------------------------|-----------------4-4-4-4-4-4-4-4-|
|---------------------------------|---------------------------------|

[Pre-Chorus]
|---------------------------------|---------------------------------|
|---------------------------------|---------------------------------|
|-------------8-8-8-8-8-8-8-8-8-8-|-5-5-5-5-5-5-5-5-5-5-5-5-5-5-5-5-|
|-1-1-1-1-1-1/--------------------|---------------------------------|
|---------------------------------|---------------------------------|

|---------------------------------|---------------------------------|
|---------------------------------|---------------------------------|
|-3-3-3-3-3-3-3-3-3-3-3-3-3-3-3-3-|-2-2-2-2-2-2-2-2-1-1-1-1-1-1-1-1-|
|---------------------------------|---------------------------------|
|---------------------------------|---------------------------------|

[Chorus]
|---------------------------------|---------------------------------|
|---------------------------------|---------------------------------|
|---------------------------------|-------------------------------3/|
|-5-5-5-5-5-5-5-5-5-5-5-5-5-5-5-5-|-1-1-1-1-1-1-1-1-1-1-1-1-1-1-1---|
|---------------------------------|---------------------------------|

|---------------------------------|---------------------------------|
|---------------------------3-5---|---------------------------------|
|-5-5-5-5-5-5-5-5-5-5-5-5-5-----0-|-3-3-3-3-3-0-2-2-2-2-2-2-2-2-2---|
|---------------------------------|-------------------------------3-|
|---------------------------------|---------------------------------|

|---------------------------------|---------------------------------|
|---------------------------------|---------------------------------|
|---------------------------------|---------------------------------|
|-3-5-5-5-5-5-5-5-5-5-5-5-5-5-5-5-|-1-1-1-1-1-1-1-1-1-1-1-1-1-1-1-1-|
|---------------------------------|---------------------------------|

|---------------------------------|---------------------------------|
|---------------------------------|---------------------------------|
|-5-5-5-5-5-5-5-5-5-5-5-5-5-5-5-5-|-3-3-3-3-3-3-2-2-2-2-2-2-2-2-2-2-|
|---------------------------------|---------------------------------|
|---------------------------------|---------------------------------|

[Verse 3]
|---------------------------------|---------------------------------|
|---------------------------------|---------------------------------|
|---------------------------------|---------------------------------|
|-5---/---17------x-x-x-17--15--12|-13--13------------13--13--12--8-|
|---------------------------------|---------------------------------|

|---------------------------------|---------------------------------|
|---------------------------------|---------------------------------|
|---------------------------------|-----------10--------------------|
|-10--10------------10--10--10--0-|-8---8---x-----5h7-7-7-7---3---0-|
|---------------------------------|---------------------------------|

|---------------------------------|---------------------------------|
|---------------------------------|---------------------------------|
|---------------------------------|---------------------------3---0-|
|-5---5-----------5-5-5-5---3---0-|-1---1---------------1-1---------|
|---------------------------------|---------------------------------|

|---------------------------------|---------------------------------|
|---------------------------------|---------------------------------|
|-5---5---------5-3h5-5-5---5-5-0-|-3---3-~-------3-----------------|
|---------------------------------|-----------------4-4-4-4---4---0-|
|---------------------------------|---------------------------------|

|---------------------------------|---------------------------------|
|---------------------------------|---------------------------------|
|---------------------------------|---------------------------------|
|-5---5-~-------5-3h5-5-5---5---0-|-1---1-~-------1-0h1-1-1---1---/-|
|---------------------------------|---------------------------------|

|---------------------------------|---------------------------------|
|---------------------------------|---------------------------------|
|-5---5-~-------5-3h5-5-5---5---0-|-3---3-~-------------------------|
|---------------------------------|-----------------4-4-4-4---4---0-|
|---------------------------------|---------------------------------|

|---------------------------------|---------------3-2---------------|
|---------------------------------|-------------------5-3-0---0-----|
|-----------------------3---------|-------------------------3-------|
|-5---5-~-------5-3h5-5-----5---0-|-1---1-~---------------------0-1/|
|---------------------------------|---------------------------------|

|---------------------------7-----|-5-5-5-5-5-5-5-5-----------------|
|-----------------------7---------|-5-5-5-5-5-5-5-5-----------------|
|-5---5-~-------0-3/5-5---5---5-5-|-3-3-3-3-3-3-3-3-----------------|
|---------------------------------|-----------------4-4-4-4-4-4-4-4-|
|---------------------------------|---------------------------------|

|---------------------------------|-----------------------9-7-0-4-5-|
|---------------------------------|---------------------------------|
|---------------------------------|-5-5-5-5-5-5-5-5-5-5-5-----------|
|-1-1-1-1-1-1-1-1-1-1-1-1-1-1-1-1-|---------------------------------|
|---------------------------------|---------------------------------|

|---------------------------------|---------------------------------|
|---------------------------------|---------------------------------|
|-3-3-3-3-3-3-3-3-3-3-3-3-3-3-3-3-|-2-2-2-2-2-2-2-2-1-1-1-1-1-1-1-1-|
|---------------------------------|---------------------------------|
|---------------------------------|---------------------------------|

|----------------------------------|---------------------------------|
|o---------------------------------|---------------------------------|
|----------------------------------|-5-----5-----5-7-8-----7-\---3-2-|
|o-5---5---5-5-0-1-----1-----1-1-/-|---------------------------------|
|----------------------------------|---------------------------------|

|---------------------------------|----------------------------------|------|
|---------------------------------|---------------------------------o|------|
|---------------------------------|-5-----5-----3-5-------5-----3-2--|-0----|
|-5---5---5-5-0-1-----1-----1-1-/-|-----------------4---------------o|------|
|---------------------------------|----------------------------------|------|

[Chorus]
|-----------------|---------------------------------|---------------------------------|
|-----------------|---------------------------------|---------------------------------|
|-----------------|---------------------------------|---------------------------------|
|-x-0-0-0-0-0-0-0-|-5-5-5-5-5-5-5-5-5-5-5-5-5-5-5-5-|-1-1-1-1-1-1-1-1-1-1-1-1-1-1-1-1-|
|-----------------|---------------------------------|---------------------------------|

|---------------------------------|---------------------------------|
|---------------------------------|---------------------------------|
|-5-5-5-5-5-5-5-5-5-5-5-5-5-5-5-5-|-3-3-3-3-3-3-2-2-2-2-2-2-2-2-2-2-|
|---------------------------------|---------------------------------|
|---------------------------------|---------------------------------|

|---------------------------------|---------------------------------|
|---------------------------------|---------------------------------|
|---------------------------------|-8-8-8-8-8-8-8-8-8-8-8-8-8-9-8-3-|
|-5-5-5-5-5-5-5-5-5-5-5-5-5-5-5-/-|---------------------------------|
|---------------------------------|---------------------------------|

|---------------------------------|---------------------------------|
|---------------------------------|---------------------------------|
|-5-5-5-5-5-5-5-5-5-5-5-5-5-7-5-0-|-3-3-3-3-3-0-2-2-2-2/7-7-7-7-7-7-|
|---------------------------------|---------------------------------|
|---------------------------------|---------------------------------|

|---------------------------------|---------------------------------|
|---------------------------------|---------------------------------|
|---------------------------------|---------------------------------|
|-5-5-5-5-5-5-5-5-5-5-5-5-5-5-5-5-|-1-1-1-1-1-1-1-1-1-1-1-1-1-1-1-1-|
|---------------------------------|---------------------------------|

|---------------------------------|---------------------------------|
|---------------------------------|---------------------------------|
|-5-5-5-5-5-5-5-5-5-5-5-5-5-5-5-5-|-3-3-3-3-3-3-2-2-2-2-2-2-2-2-2-2-|
|---------------------------------|---------------------------------|
|---------------------------------|---------------------------------|

|---------------------------------|---------------------------------|
|---------------------------------|---------------------------------|
|---------------------------------|---------------------------------|
|-5-5-5-5-5-5-5-5-5-5-5-5-5-5-5-5-|-1-1-1-1-1-1-1-1-1-1-1-1-1-1-1-1-|
|---------------------------------|---------------------------------|

|---------------------------------|---------------------------------|-----|
|---------------------------------|---------------------------------|-----|
|-5-5-5-5-5-5-5-5-5-5-5-5-5-5-5-5-|-3-3-3-3-3-3-5/7---5---3-5-------|-----|
|---------------------------------|---------------------------0-2-3-|-5---|
|---------------------------------|---------------------------------|-----|

[Interlude]

[Outro]
|----------------------------------|---------------------------------|
|o---------------------------------|---------------------------------|
|----------------------------------|---------------------------------|
|o-5---5---5-5---5-5---5---5-5---5-|-1---1---1-1---1-1---1---1-1---1-|
|----------------------------------|---------------------------------|

|---------------------------------|----------------------------------|
|---------------------------------|---------------------------------o|
|-5---5---5-5---5-5---5---5-5---5-|-3---3---3-3---3------------------|[x4]
|---------------------------------|-----------------4---4---4-4---4-o|
|---------------------------------|----------------------------------|

|---------------------------------|---------------------------------|
|---------------------------------|---------------------------------|
|---------------------------------|---------------------------------|
|-5---5-~-------5-5---5---5-5---0-|-1-1-1-~-------1-1---1---1-1---1-|
|---------------------------------|---------------------------------|

|---------------------------------|---------------------------------|
|---------------------------------|---------------------------------|
|-5---5-~-------5-5---5---5-5---5-|-3---3-~-------3-----------------|
|---------------------------------|-----------------4---4---4-4---0-|
|---------------------------------|---------------------------------|

|---------------------------------|---------------------------------|
|---------------------------------|---------------------------------|
|---------------------------------|---------------------------------|
|-5---5-~-------5-5---5---5-5---0-|-1-1-1-~-------1-1---1---1-1---1-|
|---------------------------------|---------------------------------|

|---------------------------------|---------------------------------|
|---------------------------------|-----------10\-------------------|
|-5---5-~-------5-5---5---5-5---5-|-3---3---3/----3-----------------|
|---------------------------------|-----------------4---4---4-4---4-|
|---------------------------------|---------------------------------|
            
Submit corrections


        Stuck lessons Hard to play? Try these video lessons and learn fast Stuck lessons
        
↑ Back to top | Tablatures and chords for acoustic guitar and electric guitar, ukulele, drums are parodies/interpretations of the original songs. You may use it for private study, scholarship, research or language learning purposes only