Home » L » Leprous »

Leprous - Coal Bass

Artists:  A B C D E F G H I J K L M N O P Q R S T U V W X Y Z # 

Coal Bass

(ver. 1) Click to play this song!
Leprous
 Rating:
4.3/5 (10 votes)
                [Intro]
 3/4                                              5/4
G|------------------------|------------------------|----------------------------------------|
D|------------------------|------------------------|----------------------------------------|
A|------------------------|------------------------|----------------------------------------| (x2)
E|4-----------4-r-----4---|4-----------4-r-----4---|5---------------------------------------| 
B|------------------------|------------------------|----3-----------------------------------|
 3/4                                              5/4
G|------------------------|------------------------|----------------------------------------|
D|------------------------|------------------------|----------------------------------------|
A|------------------------|------------------------|----------------------------------------|
E|4-----------4-r-----4---|4-----------4-r-----4---|5-----------------------------------4---|
B|------------------------|------------------------|----3-----------------------------------|
 3/4                                              4/4
G|------------------------|------------------------|--------------------------------|
D|------------------------|------------------------|--------------------------------|
A|------------------------|------------------------|--------------------------------|
E|----4-r---------4---4---|----4-r---------4---5---|--------------------------------|
B|------------------------|------------------------|3-------------------------------|
  3/4  
G|------------------------|------------------------|------------------------|------------------------|
D|------------------------|------------------------|------------------------|------------------------|
A|------------------------|------------------------|------------------------|------------------------|
E|4------r----------------|------------------------|------------------------|------------------------|
B|------------------------|------------------------|------------------------|------------------------|

G|------------------------|------------------------|------------------------|------------------------|
D|------------------------|------------------------|------------------------|------------------------|
A|-----------------------/|5---5-5---5-5---5---5---|------------------------|------------------------|
E|4---4-4---4-4-4-4---4---|------------------------|5-5---5---5-5---5---5-5-|1-1---1---1-1---1---1---|
B|------------------------|------------------------|------------------------|------------------------|


[Verse]

G|------------------------|------------------------|------------------------|------------------------|
D|------------------------|------------------------|------------------------|------------------------|
A|-----------------------/|5---5-5---5-5---5---5---|------------------------|------------------------| (x4)
E|4---4-4---4-4-4-4---4---|------------------------|5-5---5---5-5---5---5-5-|1-1---1---1-1---1---1---|
B|------------------------|------------------------|------------------------|------------------------|


[Chorus] (x2)

G|------------------------|------------------------|------------------------|------------------------|
D|------------------------|------------------------|------------------------|------------------------|
A|------------------------|------------------------|------------------------|------------------------|
E|4---4-4---4---4-4---4---|4---4-4---4---4-4---4---|4-4---4---4-4---4---4-4-|4---4-4---4---4-4---4---|
B|------------------------|------------------------|------------------------|------------------------|

G|------------------------|------------------------|------------------------|------------------------|
D|------------------------|------------------------|------------------------|------------------------|
A|------------------------|------------------------|------------------------|------------------------|
E|1---1-1---1---1-1---1---|1---1-1---1---1-1---1---|1-1---1---1-1---1---1-1-|1---1-1---1---1-1---1---|
B|------------------------|------------------------|------------------------|------------------------|

G|------------------------|------------------------|------------------------|------------------------|
D|------------------------|------------------------|------------------------|------------------------|
A|------------------------|------------------------|------------------------|------------------------|
E|0---0-0---0---0-0---0---|0---0-0---0---0-0---0---|0-0---0---0-0---0---0-0-|0---0-0---0---0-0---0---|
B|------------------------|------------------------|------------------------|------------------------|

G|------------------------|------------------------|------------------------|------------------------|
D|------------------------|------------------------|------------------------|------------------------|
A|------------------------|------------------------|------------------------|------------------------|
E|3---3-3---3---3-3---3---|3---3-3---3---3-3---3---|3-3---3---3-3---3---3-3-|3---3-3---3---3-3---3---|
B|------------------------|------------------------|------------------------|------------------------|


[Post-Chorus] (not sure, kinda messed up)

G|------------------------|------------------------|------------------------|------------------------|
D|------------------------|------------------------|------------------------|------------------------|
A|------------------------|------------------------|------------------------|------------------------| (x2)
E|4---4-4---4---4-4---4---|4---4-4---4---4-4---4---|4-4---4---4-4---4---4-4-|4---4-4---4---4-4---4---| 
B|------------------------|------------------------|------------------------|------------------------|


[Verse]

G|------------------------|------------------------|------------------------|------------------------|
D|------------------------|------------------------|------------------------|------------------------|
A|------------------------|------------------------|------------------------|------------------------| (x3)
E|------------------------|------------------------|------------------------|------------------------|
B|------------------------|------------------------|------------------------|------------------------|

G|------------------------|------------------------|------------------------|------------------------|
D|------------------------|------------------------|------------------------|------------------------|
A|------------------------|------------------------|------------------------|------------------------|
E|------------------------|------------------------|------------------------|1-1--1----1-1---1---1---|
B|------------------------|------------------------|------------------------|------------------------|


[Interlude]

G|------------------------|------------------------|------------------------|------------------------|
D|------------------------|------------------------|------------------------|------------------------|
A|-----------------------/|5---5-5---5-5---5---5---|------------------------|------------------------| (x3)
E|4---4-4---4-4-4-4---4---|------------------------|5-5---5---5-5---5---5-5-|1-1---1---1-1---1---1---|
B|------------------------|------------------------|------------------------|------------------------|

G|------------------------|------------------------|------------------------|------------------------|
D|------------------------|------------------------|------------------------|------------------------|
A|-----------------------/|5---5-5---5-5---5---5---|------------------------|------------------------|
E|4---4-4---4-4-4-4---4---|------------------------|5-5---5---5-5---5---5-5-|1-1---1--r--------------|
B|------------------------|------------------------|------------------------|------------------------|
                                                   5/4
G|------------------------|------------------------|----------------------------------------|
D|------------------------|------------------------|----------------------------------------|
A|------------------------|------------------------|----------------------------------------|
E|4-----------4-r---------|------------4-r---------|----------------------------------------|
B|------------------------|------------------------|----------------------------------------|
 3/4                                               5/4
G|------------------------|------------------------|----------------------------------------|
D|------------------------|------------------------|----------------------------------------|
A|------------------------|------------------------|----------------------------------------| (x2)
E|4-----------4-r-----4---|4-----------4-r-----4---|5---------------------------------------| 
B|------------------------|------------------------|----3-----------------------------------|
 3/4                                              5/4
G|------------------------|------------------------|----------------------------------------|
D|------------------------|------------------------|----------------------------------------|
A|------------------------|------------------------|----------------------------------------|
E|4-----------4-r-----4---|4-----------4-r-----4---|5-----------------------------------4---|
B|------------------------|------------------------|----3-----------------------------------|
 3/4
G|------------------------|------------------------|------------------------|------------------------|
D|------------------------|------------------------|------------------------|------------------------|
A|------------------------|------------------------|------------------------|------------------------|
E|----4-r---------4---4---|----4-r---------4---5---|------------------------|------------------------|
B|------------------------|------------------------|3-----------------------|------------------------|

  3/4  
G|------------------------|------------------------|------------------------|------------------------|
D|------------------------|------------------------|------------------------|------------------------|
A|------------------------|------------------------|------------------------|------------------------|
E|4------r----------------|------------------------|------------------------|------------------------|
B|------------------------|------------------------|------------------------|------------------------|


[Bridge]
 4/4
G|----------------|----------------|----------------|----------------|
D|----------------|----------------|----------------|----------------|
A|1-3-------------|----------------|----------------|----------------|
E|------4---------|----------------|3-4---1-----3---|----------------|
B|----------4-3---|----------------|----------------|--1-----3---4---|

G|----------------|----------------|----------------|----------------|
D|6---------------|----------------|----------------|----------------|
A|--5-------6-5---|----------------|----------------|--------5-------|
E|------4---------|----------------|3-4---1-----3---|------------3---|
B|----------------|----------------|----------------|--1-------------|

G|----------------|----------------|----------------|----------------|
D|----------------|----------------|----------------|----------------|
A|----------------|----------------|----------------|----------------|
E|1-3---4---------|----------------|3-4---1-----3---|----------------|
B|----------4-3---|----------------|----------------|--1-----3---4---|

G|----------------|----------------|----------------|----------------|
D|6---------------|----------------|----------------|----------------|
A|--5-------6-5---|----------------|----------------|--------5-------|
E|------4---------|----------------|3-4---1-----3---|----------3-3-r-|
B|----------------|----------------|----------------|--1-------------|

G|--------------------------------|--------------------------------|
D|--------------------------------|--------------------------------|
A|--------------------------------|--------------------------------|
E|4r--4-4-r-4-4-r-4-4-4-r-4-4-4-r-|4r--4-4-r-4-4-r-4-4-4-r-4-4-4-r-| (x4)
B|--------------------------------|--------------------------------|

G|----------------|----------------|----------------|----------------|
D|----------------|----------------|----------------|----------------|
A|----------------|----------------|----------------|----------------|
E|----------------|----------------|3-4---1-----3---|----------------|
B|----------4-3---|----------------|----------------|--1-----3---4---|

G|----------------|----------------|----------------|----------------|
D|6---------------|----------------|----------------|----------------|
A|--5-------6-5---|----------------|----------------|--------5-------|
E|------4---------|----------------|3-4---1-----3---|------------3---|
B|----------------|----------------|----------------|--1-------------|


[Outro]
                          |-3-| |-3-| |-3-| |-3-|
G|------------------------------------------------|------------------------------------------------|
D|6--------6--------6-----------------------------|6--------6--------6-r---------------------------|
A|------------------------------------------------|------------------------------------------------| (x4)
E|------4--------4--------------------------------|------4--------4--------------------------------|
B|------------------------3-3-3-3-3-3-3-3-3-3-3-3-|------------------------------------------------|
                          |-3-| |-3-| |-3-| |-3-|
G|------------------------------------------------|------------------------------------------------|
D|3--------3--------3-----------------------------|3--------3--------3-r---------------------------|
A|------------------------------------------------|------------------------------------------------| (x2)
E|------1--------1--------------------------------|------1--------1--------------------------------|
B|------------------------1-1-1-1-1-1-1-1-1-1-1-1-|------------------------------------------------|
                          |-3-| |-3-| |-3-| |-3-|
G|------------------------------------------------|------------------------------------------------|
D|------------------------------------------------|------------------------------------------------|
A|7--------7--------7-----------------------------|7--------7--------7-r---------------------------| (x2)
E|------------------------------------------------|------------------------------------------------|
B|------5--------5--------4-4-4-4-4-4-4-4-4-4-4-4-|------5--------5--------------------------------|
                          |-3-| |-3-| |-3-| |-3-|
G|------------------------------------------------|------------------------------------------------|
D|5--------5--------5-----------------------------|5--------5--------5-r---------------------------|
A|------------------------------------------------|------------------------------------------------| (x2)
E|------3--------3--------------------------------|------3--------3--------------------------------|
B|------------------------2-2-2-2-2-2-2-2-2-2-2-2-|------------------------------------------------|

            
Submit corrections

↑ Back to top | Tablatures and chords for acoustic guitar and electric guitar, ukulele, drums are parodies/interpretations of the original songs. You may use it for private study, scholarship, research or language learning purposes only