» » »

Leonard Cohen - So Long Marianne Bass

Artists:  A B C D E F G H I J K L M N O P Q R S T U V W X Y Z # 

So Long Marianne Bass

(ver. 1) Click to play this song!
Leonard Cohen
 Rating:
4.4/5 (8 votes)

 So Long Marianne lessons Tabs too difficult? Try these video lessons and learn fast
 
                0:46

G|----|
D|----|
A|7---|
E|--7-|

G|------------------------------------------------------------------------|
D|------------------------------------------------------------------------|
A|7-----7-7---7---4-------5/7-----7---5/7-----7---7---7---7---7---7-5-----|
E|--------------------7-----------------------------------------------7---|

G|------------------------------------------------------------------------------------------------|
D|------------7-----------------------7---5-----------------7-7-------------------7---7---5-------|
A|----------7-----------7---------------------7-----------------------------------------------7---|
E|5-----------------------5-----------------------5---------------------5-5-----------------------|

G|----------------------------|
D|------------7---------------| fades out.
A|----------7-----------------|
E|5-----------------------5---|



1:06

G|--------------------------------------|
D|--9-----------------------9-----6-----|
A|9---------------------9-----------9---|
E|------------7-7-----------------------|

G|------------------------------------------------------------------------------------------------|
D|----------------------------------4-7-4-----------------7---7-----------7-7---7-7---7---7---6---|
A|5-----------5-----------5---------------5---------------------------7---------------------------|
E|----------5---------5-----------------------7---5-----------------------------------------------|

1:17

G|------------------------------------------------------------------------------------------------|
D|5-----------5-----------5-5---5-5---5---4-------------------7-----------------------------------|
A|----------5-----------5---------------------7---5-----------------------5-5---5-5---5-------7---|
E|----------------------------------------------------------------------5-------------------------|

G|-----------------------------------------------------------------------------------------------------|
D|----------------------------------------------------------------------------9---9/12--12/14--12--9---|
A|9-----------9-----------9-9---9-9---x---9-------7-----------7-----------7----------------------------|
E|----------9---------9-----------------9-----9-------------7-----------7------------------------------|

1:32

G|------------------------------------------------------------------------------------------------|
D|7---------7-7---------------7---7---7---7---6---------------------------------------------------|
A|----------------------7-7/9---------------------9---------9-9-------x---9-------9-9-----x---9---|
E|------------------------------------------------------------------------------------------9-----|

G|------------------------------------------------------------------------------9-9---9---7-------|
D|----------9-----------------------9-----------------------9-------------------------------9-----|
A|7-----------7-----------7-----------7-----------7-----------7-----------7-------------------7---|
E|----------------------7-----------------------7---------------------7---------------------------|

G|------------------------------------------------------------------------------------------------|
D|7---------7-7-----------7-7---7-7---7---7-----------------7-7-----------7-7---7-7---7---7-------|
A|--------------------7-----------------------7-----------------------7-----------------------7---|
E|------------------------------------------------5-----------------------------------------------|

G|------------------------|
D|----------7-7-----------|
A|--------------------7---|
E|5-----------------------|

1:57

G|------------------------------------------------------------------------------------------------|
D|--------7---7-----------7-7---7-7---7-------------------7---7-----------------------------------|
A|--------------------7-----------------------7---------------------------------------------------|
E|5-----------------------------------------------5-------------------5---5-5---5-5---5---5---0---|

G|------------------------------------------------------------------------------------------------|
D|------------------------------------------------------------------------------------------------|
A|------------------------------------------------------------------------------------------------|
E|5-----5-5---5-------0---5-5---5-5---5---5---0---5-------5---5-------0---5-5---5-5---5---5---5---|

2:12

G|------------------------------------------------------------------------------------------------|
D|------------5-----------5-5---5-5---5---5-------------------------------------------------------|
A|--------5-----------5-----------------5-----7---5-----------5-------------5---5-5---5---5---7---|
E|3---------------------------------------------------------5-----------5-------------------------|

G|-------------------------------------------------------------------------------------------9------|
D|--------------------------------------------------------------------------------9---9/12----------|
A|7/9-----9---9---x---9---9-----------9---9---9---7-----------7-----------7---7-----------------7---|
E|------------------9---9---------9-----9---9---9-----------7-----------7---------------------------|

2:27

G|----------9-----------9-----------9---9---------------------------------------------------------|
D|7-----------7-----------7-----------7---7---6---------------------------------------------------|
A|------------------------------------------------9-----------9-----------9-----------9---9---9---|
E|----------------------------------------------------------9-----------9-----------9---9---9-----|

G|--------------------------------------------------------------------------------------------------|
D|--------------------------------9-----------------------------------------------------------------|
A|7-----------7-----------7-----------7---7-------7-------6/7-----7-------6/7---7---7---7-5---------|
E|----------7-----------7---------------------7-----------------------7---------------------7---0---|

G|--------------------------------------------------------------------------------------------------|
D|--------------------------------------------------------------------------------------------------|
A|--------------------------------------------------------------------------------------------------|
E|5---------5-5-------5-----5-----5-5---5---5---0---5-----5-5---5-------0---5-5---5-5---5---5---0---|

2:50

G|------------------------------------------------------------------------|
D|------------------------------------------------------------------------|
A|--------------------------------------------------------------------4---|
E|5---------5-5-------0---5-------5---5-------0---5-----5-5-----0-5-------|

G|------------------------------------------------------------------------------------------------|
D|----------------------------------------------------------------------------------------4-------|
A|2-----------2-----------2-2---2-2---2---2---4---5-----------5-----------5-5---5-5---5-7-----5---|
E|----------2-----------2-----------------------------------5---------5---------------------------|

G|------------------------------------------------|
D|------------------------------------------------|
A|------------------------------------------------|
E|5---------0-5---------0-5-5---5-5---5---5---4---|

3:07

G|------------------------------------------------------------------------------------------------|
D|------------5-----------5-----------5-5---------------------------------------------------------|
A|----------5-----------5---------5-----------7---5-----------5-----------5-5-----5---5---5---7---|
E|3---------------------------------------------------------5-----------5-------5-----------------|

G|------------------------------------------------------------------------------------------9-------|
D|--------------------------------------------------------------------------------9---9/12----------|
A|7h9-----9---9-----------9-----9-9---x---9-------7-----------7-----------7---7-----------------7---|
E|--------------------9-----------------9-----9-------------7---------7-----------------------------|

3:23

G|----------9-----------9-----------9-------------------------------------------------------------|
D|7-----------7-----------7-----------7---7---6-------------------------11----------11--11----11--|
A|------------------------------------------------9-----------9-----------9-----------9---9-------|
E|------------------------------------------------------------------------------------------------|

G|------------------------------------------------------------------------------------------------|
D|----------9-----------9---------9---------------------------------------------------------------|
A|7-----------7-----------7-----------7---7-------7-----------7-------------7-7---7---------------|
E|--------------------------------------------7-------------7---------7---------------7---7---0---|

G|------------------------------------------------------------------------------------------------|
D|------------7-----------7-7---7-7---7---7-------------------7-------------7---7-7---7---7-------|
A|----------7-----------7---------------------7-------------7-----------7---------------------7---|
E|5-----------------------------------------------5-----------------------5-----------------------|

G|------------------------|
D|------------7-----------|
A|----------7---------7---|
E|5-----------------------|

3:47

G|------------------------------------------------------------------------------------------------|
D|------------7-----------------------------------------------------------------------------------|
A|--------7-----------7---------------------------------------------------------------------------|
E|5-----------------------5-5---5-5---5-------0---5-----5-5---5-------0---5-5---5-5---5---5---0---|

G|------------------------------------------------------------------------------------------------|
D|------------------------------------------------------------------------------------------------|
A|------------------------------------------------------------------------------------------------|
E|5-----5-5---5-------0---5-5---5-5---5---5---0---5-----5-5---5---0-2-5---5-----5-5---0-2-5---5---|

4:02

G|------------------------------------------------------------------------------------------------|
D|--------------------------------------------2---------------------------------------------------|
A|----------------------------------------2-------5-----------5-----------5---5-------5---5---7---|
E|3-------3-3---------3---3-3-3---3---3---------------------5-----------5---5-------5-------------|

G|------------------------------------------------------------------------------------------------|
D|------------------------------------------------------------------------------------------------|
A|9-----------x-------9---9-----9-9---x---9-------7-----------7-----------7-7-7---7---7-5---------|
E|----------9---------------------------9-----9-------------7---------7-------------------7---0---|

4:17

G|------------------------------------------------------------------------------------------------|
D|------------7-----------------------7---7---6---------------------------------------------------|
A|----------7-----------7---------7-----7---------9-----------9-----------9---9---9---9---9---9---|
E|5-----------------------5---------------------------------9-----------9---9-------9-------9---9-|

G|------------------------------------------------------------------------------------------------|
D|------------------------------------------------------------------------------------------------|
A|7-----------7-----------7-----7-----7-----------7-7---7-7---7---x---7---7-------7-----5---------|
E|----------7---------7-------------7---------7---------------------7---7-----------------7---0---|

G|----------------------------------------------------------------------------------------------------|
D|------------7-----------7-------7---7-7---7-----7-----------7-----------7-----7-7---7---------------| fades
A|----------7-----------7-----------------------7-----------7-----------------------------------------| out.
E|5-----------------------------------------------------------------------------------------------5---|



5:12

G|------------------------------------------------------------------------------------------------|
D|------------7-----------------------7---7---6---------------------------------------------------|
A|----------7-----------7---------7-----7---------9-----------9-----------9-9---9-----9---9---8---|
E|5-----------------------5---------------------------------9---------9-------------9-------------|

G|------------9-------9-----------7---9-------------------7---9---7---------------7---9-7---------|
D|--------9-----------------------------------9-----------------------9---------9---------9-------|
A|7-----------------------7-----------------------7-----------------------7-------------------7---|
E|------------------------------------------------------------------------------------------------|

G|------------------------------------------------------------------------------------------------|
D|------------7-----------------------------------------------------------------------------------|
A|----------7-----------7-------------------------------------------------------------------------|
E|5-----------------------5-----------5-----0-0---5-------5---5-------0---5-5---5-5---5---5---0---|

G|----------------|
D|----------------|
A|----------------|
E|5-----5-5---5---|            
Submit corrections


        So Long Marianne lessons Hard to play? Try these video lessons and learn fast So Long Marianne lessons
        
↑ Back to top | Tablatures and chords for acoustic guitar and electric guitar, ukulele, drums are parodies/interpretations of the original songs. You may use it for private study, scholarship, research or language learning purposes only