Home » L » Lenny Kravitz »

Lenny Kravitz - Are You Go My Way Tabs

Artists:  A B C D E F G H I J K L M N O P Q R S T U V W X Y Z # 

Are You Go My Way Tabs
Version #1
Lenny Kravitz


Copy URL
Lenny Kravitz-Are You Gonna Go My Way
-Standard Tuning-
nicolaslp

     Riff 1: ---- 2x ----
        |-------------------------------------------3----|
        |-------------------------------------------3----|
  G 1   |-2-^4-^2-p0-------------2-^4-^2-p0--------------|
        |------------2---0-2----------------2---0-2------|
        |------------------------------------------------|
        |--------------0-------0--------------0----------|


    
     Riff 2: ---- 6x ----
        |-------------------------------------------3----|
        |-------------------------------------------3----|
  G 1   |-2-^4-^2-p0-------------2-^4-^2-p0--------------|
        |------------2---0-2----------------2---0-2------|
        |------------------------------------------------|
        |--------------0-------0--------------0----------|
        |                                                |
        |                                                |
        |------------------------------------------------|   
        |-10^12^10p8-------------10^12^10p8--------------|   
  G 2   |------------9---7-9----------------9---7-9------|   
        |------------------------------------------------|   
        |------------------------------------------------|   
        |------------------------------------------------|

|---------------------------------------------------------

|    Riff 3: ---- 4x ----
|       |------------------------------------------------|
|       |------------------------------------------------|
|  G 1  |-2-^4-^2-p0-------------2-^4-^2-p0--------------|
|       |------------2---0-2----------------2---0-2------|
|       |------------------------------------------------|
|       |--------------0-------0--------------0-------0--|
|
|       I was born long ago
|       I am the chosen I\'m the one
|       I have come to save the day
|       And I won\'t leave until I\'m done
|---------------------------------------------------------

        
|              -- 3x --         ||
|       |-----------------------||-------------------|
|       |-----------------------||-------------------|
|  G 1  |-5-^7-^5-p3------------||--5---4---3--2--4--|
|       |------------5-0-3-5--0-||-------------------|
|       |-----------------------||-------------------|
|       |-----------------------||-------------------|
|       |                                            |
|       |      -- 3x --         ||                   |
|       |-----------------------||-------------------|
|       |-13^15^13p11-----------||-------------------|
|  G 2  |------------12--10-12--||--12--10--9--10-12-|
|       |-----------------------||-------------------|
|       |-----------------------||-------------------|
|       |-----------------------||-------------------|
|
|        So that\'s why you\'ve got to try
|        You\'ve got to breathe and have some fun
|---------------------------------------------------------

|    Riff 3    2x
|
|        Though I\'m not paid I play this game
|        And I won\'t stop until I\'m done
|---------------------------------------------------------
        
|    Chorus:
|       |----0-------------------0--------------------|
|       |----0-------------------0--------------------|
|       |----7-------------------6--------------------|
|       |----9-------------------7--------------------|
|       |---------------------------------------------|
|       |---------------------------------------------|
|              But what I really want to know is


|       |------------------------------------------|
|       |-9-9-7-9---------------------9-9--12-9----|
|       |-9-9-7-9---------------------9-9--12-9----|
|       |-9-9-7-9---------------------9-9--12-9----|
|       |------------------------------------------|
|       |------------------------------------------|
|                 Are you gonna go my way


|       |----0---------------0------------------------|
|       |----0---------------0------------------------|
|       |----7---------------6------------------------|
|       |----9---------------7------------------------|
|       |---------------------------------------------|
|       |---------------------------------------------|
|            And I got to    got to know
|
|---------------------------------------------------------

       Riff 1    1x

       Riff 2    3x
|---------------------------------------------------------

       Riff 3    4x    
        I don\'t know why we always cry
        This we must leave and get undone
        We must engage and rearrange
        And turn this planet back to one
|---------------------------------------------------------
        
               -- 3x ---------  ||
        |-----------------------||-------------------|
        |-----------------------||-------------------|
        |-5-^7-^5-p3------------||--5---4---3--2--4--|
        |------------5-0-3-5--0-||-------------------|
        |-----------------------||-------------------|
        |-----------------------||-------------------|
        |                                            |
        |      -- 3x --------   ||                   |
        |-----------------------||-------------------|
        |-13^15^13p11-----------||--13--12--11-10-12-|
        |------------12--10-12--||-------------------|
        |-----------------------||-------------------|
        |-----------------------||-------------------|
        |-----------------------||-------------------|

        So tell me why we got to die                  
        And kill each other one by one
|---------------------------------------------------------

       Riff 3    2x    

        We\'ve got to love and rub-a-dub
        We\'ve got to dance and be in love
|---------------------------------------------------------

     Chorus
|---------------------------------------------------------

     Solo:
              12x in total --             -- ending with:
        |---------------------------------||-----------------|
        |-9-----7-------7-------5-5-7-5---||-----------------|
        |-9-----7-------7-------6-6-7-6---||-----------------|
        |-9-----7-------7-------7-7-7-7---||-----0-1---------|
        |---------------------------------||---4-------------|
        |---------------------------------||-----------------|
        (repeat 4x by itself, then 8x under solo

|---------------------------------------------------------
        
      Outro:

        Riff 2    4x


        |-0----------0-------0-------------0-------|
        |-0----------0-------0-------------0-------|
        |-7----------6-------7-------------6-------|
        |-9----------7-------9-------------7-------|
        |------------------------------------------|
        |------------------------------------------|

|---------------------------------------------------------

        |------------------------------------------|
        |-9-9-7-9---------------------9-9--7--9----|
        |-9-9-7-9---------------------9-9--7--9----|
        |-9-9-7-9---------------------9-9--7--9----|
        |------------------------------------------|
        |------------------------------------------|
                  Are you gonna go my way


        |-0---------------0------------------------|
        |-8---------------7------------------------|
        |-7---------------6------------------------|
        |-9---------------8------------------------|
        |------------------------------------------|
        |------------------------------------------|
            \'cause Baby I got to know
            
Submit corrections

↑ Back to top | Tablatures and chords for acoustic guitar and electric guitar, ukulele, drums are parodies/interpretations of the original songs. You may use it for private study, scholarship, research or language learning purposes only