Home » L » Lemonheads »

Lemonheads - Into Your Arms Bass

Artists:  A B C D E F G H I J K L M N O P Q R S T U V W X Y Z # 

Into Your Arms Bass

(ver. 1) Click to play this song!
Lemonheads
 Rating:
3.4/5 (5 votes)
                -----------------------------------------------------------------
Into Your Arms - The Lemonheads
-----------------------------------------------------------------

Tuning:Standard

Intro:

  3 measure rest
G|--------------|-5h7-5h7-5-------|-----------------|---------------|
D|--------------|------------7--5-|-0-0-0-0-0-0-0-0-|-0-0-2-----2---|
A|--------------|-----------------|-----------------|-------0-0---3-|
E|--------------|-----------------|-----------------|---------------|

Verse:

"I know a place..."				
G|-----------------|-----------------|-----------------|
D|-----------------|-----------------|-----------------|
A|-5-5-5-5-5-5-5-5-|-5-5-5-5-5-5-5-5-|-----------------|
E|-----------------|-----------------|-3-3-3-3-3-3-3-3-|

G|-----------------|-----------------|-----------------|
D|-----------------|-----------------|-----------------|
A|-----------------|-----------------|-----------------|
E|-0-0-0-0-0-0-0-0-|-3-3-3-3-0-0-0-0-|-3-3-3-3-0-0-0-0-|


Chorus:
G|-----------------|-----------------|-----------------|
D|-----------------|-----------------|-----------------|
A|-0~--------------|-5-5-5-5-5-5-5-5-|-5-5-5-5-5-5-5-5-|
E|---------3~------|-----------------|-----------------|

G|-----------------|-----------------|-----------------|
D|-----------------|-----------------|-----------------|
A|-0~--------------|-----------------|-0-0-0-0-0-0-0-0-|
E|---------3~------|-0-0-0-0-0-0-0-0-|-----------------|
			*build*
G|-----------------|
D|-----------------|
A|-0-0-0-0-0-0-0-0-|
E|-----------------|


During the solos jsut hold eighth notes on a D, any D.
            
Submit corrections

↑ Back to top | Tablatures and chords for acoustic guitar and electric guitar, ukulele, drums are parodies/interpretations of the original songs. You may use it for private study, scholarship, research or language learning purposes only