» » »

Leftover Crack - Atheist Antem Tabs

Artists:  A B C D E F G H I J K L M N O P Q R S T U V W X Y Z # 

Atheist Antem Tabs

(ver. 1) Click to play this song!
Leftover Crack
 Rating:
4/5 (4 votes)

 Atheist Antem lessons Tabs too difficult? Try these video lessons and learn fast
 
                Intro (palm muting)
e|-----------------------------------------------------|
B|-----------------------------------------------------|
G|--10----9----7-----9------------------------------|
D|--10----9----7-----9------------------------------|
A|---8-----7----5----7-------------------------------|
E|-----------------------------------------------------|

Verse
e|-----------------------------------------------------|
B|-----------------------------------------------------|
G|--10----9----7-----15-----------------------------|
D|--10----9----7-----15-----------------------------|
A|---8-----7----5-----13----------------------------|
E|-----------------------------------------------------|

Chorus
e|-----------------------------------------------------|
B|-----------------------------------------------------|
G|---10---12----14----15--------------------------|
D|---10---12----14----15---------------------------|
A|----8----10----12----13---------------------------|
E|-----------------------------------------------------|
            
Submit corrections


        Atheist Antem lessons Hard to play? Try these video lessons and learn fast Atheist Antem lessons
        
↑ Back to top | Tablatures and chords for acoustic guitar and electric guitar, ukulele, drums are parodies/interpretations of the original songs. You may use it for private study, scholarship, research or language learning purposes only