Home » L » Lee Brice »

Lee Brice - Woman Like You Tabs

Artists:  A B C D E F G H I J K L M N O P Q R S T U V W X Y Z # 

Woman Like You Tabs

(ver. 1) Click to play this song!
Lee Brice
CAPO 5

[Intro] 
    D                        Bm                          G
e|-----2--2-----10-----3------------------2--2-2--2-2-2-----2--2-2-2--2--2-2--2-2-2--|
B|-----3--3-----12-----5--------3--3-3-3--3--3-3--3-3-3-----2--2-2-2--2--2-2--2-2-2--|
G|-----2--2-----12-----4--------4--4-4-4--4--4-4--4-4-4-----0--0-0-0--0--0-0--0-0-0--|
D|--0--------0------0-----0-----4--4-4-4--4--4-4--4-4-4-----0--0-0-0--0--0-0--0-0-0--|
A|---------------------------2------------2--2-2--2-2-2--------2-2-2--2--2-2--2-2-2--|
E|-------------------------------------------------------3-----3-3-3--3--3-3--3-3-3--|

    Em                         A
e|-----0--0-0-0-0--0-0--0-0-0-----0--0-0-0-0--0-0--0-0-0--|
B|-----0--0-0-0-0--0-0--0-0-0-----2--2-2-2-2--2-2--2-2-2--|
G|-----0--0-0-0-0--0-0--0-0-0-----2--2-2-2-2--2-2--2-2-2--| *repeat for the whole song
D|-----2--2-2-2-2--2-2--2-2-2-----2--2-2-2-2--2-2--2-2-2--|
A|--------2-2-2-2--2-2--2-2-2--0-----0-0-0-0--0-0--0-0-0--|
E|--0-----0-0-0-0--0-0--0-0-0-----------------------------|            
Submit corrections

↑ Back to top | Tablatures and chords for acoustic guitar and electric guitar, ukulele, drums are parodies/interpretations of the original songs. You may use it for private study, scholarship, research or language learning purposes only