» » »

Lee Brice - Beautiful Every Time Tabs

Artists:  A B C D E F G H I J K L M N O P Q R S T U V W X Y Z # 

Beautiful Every Time Tabs

(ver. 1) Click to play this song!
Lee Brice
 Rating:
4.3/5 (23 votes)
                [Intro Lick, he plays essentially this after the chorus and at the end]
e|-7-----7--7--------------------------------------------------------------------------|
B|-7-h9--7--7h9---/11---11-------------------------------------------------------------|
G|-8-----8--8-----/11---11------11\9-------9-9----9h11-9---11/13--11\9-----------------|
D|----------------/11---11h13---11\9----11-----11--------11-----------------11\9-------|
A|-------------------------------------------------------------------------------------|
E|-------------------------------------------------------------------------------------|

e|-7-----7--7----------------------------------------------------------------|
B|-7-h9--7--7h9---/11---11---------------------------------------------------|
G|-8-----8--8-----/11---11-----11\9---11-11-13-14----------------------------|
D|----------------/11---11h13--11\9---11-11-13-14-----14\--------------------|
A|---------------------------------------------------------------------------|
E|---------------------------------------------------------------------------|

[Other Licks he plays mid verse]
(after a B:)             (after a B following an A:)
e|---------------------|------------------------------------------------------|
B|---------------------|------------------------------------------------------|
G|---------------------|--------4h6-------------------------------------------|
D|--------4h6p4--------|----4h6-----------------------------------------------|
A|---4h6--------6------|------------------------------------------------------|
E|---------------------|------------------------------------------------------|

[Solo Lick, the first part I believe is right but I can't get the last couple bars]
e|------------------------------------------------------14b--12-11-14N-12\---|
B|-12---12-------9b----------9--12-12-----15-14-12-12\-----------------------|
G|---------11--------11---9-----------13-------------------------------------|
D|---------------------------------------------------------------------------|
A|---------------------------------------------------------------------------|
E|---------------------------------------------------------------------------|

e|--------------------------------11-----------------------------------------|
B|---------------------9---12---14----12-------------------------------------|
G|-------------9---11--------------------------------------------------------|
D|----9-9h11-9---9---9--9----------------------------------------------------|
A|---------------------------------------------------------------------------|
E|---------------------------------------------------------------------------|            
Submit corrections

↑ Back to top | Tablatures and chords for acoustic guitar and electric guitar, ukulele, drums are parodies/interpretations of the original songs. You may use it for private study, scholarship, research or language learning purposes only