Home » L » Lcd Soundsystem »

Lcd Soundsystem - New York I Love You But Youre Bringing Me Down Bass

Artists:  A B C D E F G H I J K L M N O P Q R S T U V W X Y Z # 

New York I Love You But Youre Bringing Me Down Bass

(ver. 1) Click to play this song!
Lcd Soundsystem
Not on record but nicer otherwise you’d have a 40 seconds sound gap if no piano
G|----------------------------------|
D|----------------------------------|
A|----------------5~~~~~~~~4~~~~~~~~|
E|1~~~~~~~~~~~~~~~------------------|

[0:39 -  0:48]
New York you are safer and you are wasting my time
G|----------------------------------|
D|---3~~~~~3-3—---------------------|
A|------------5~~~~4~~~~5-6-7-8~~~~~|
E|----------------------------------|

[0:48 - 0: 56] 
Our records all show you were filthy but fine
G|----------------------------------|
D|---------3-3—---------------------|
A|------------5~~~~4~~~~5-6-7-8~~~~~|
E|----------------------------------|

[0:57 - 1:13] x2
But they shuttered your stores when you opened the doors
To the cops who got bored once they'd run out of crime.
G|----------------------------------|
D|--3~~~~~3-------------------------|
A|----------3-5~~~~5-4~~~~5-6-7-8~~~|
E|----------------------------------|

[1:14 - 1:22]
New York, you're perfect, oh, please don't change a thing
G|----10~~~~10----------------------|
D|--10----10------------------------|
A|-------------3-5~~~~4~~~~5-6-7-8~~|
E|----------------------------------|

[1:22 - 1:31]
Your mild billionaire mayor's now convinced he's a king.
G|-------10~~~~---------------------|
D|----10----------------------------|
A|----------3-5~~~~5-4~~~5-6-7-8~~~~|
E|----------------------------------|

[1:32 - 1:39]    
So the boring collect...I mean all disrespect.]
G|---10~~~~~---------------9/11----------|
D|-10---------12---------12-----11--------|
A|-----3-3-5---12----12----------11-8~~~~|
E|----------------13---------------------|

[1:40 - 1:47]   
In the neighborhood bars I once dreamt I would drink.
G|---10~~~/12----------10-----------------|
D|10----------12----------10--------------|
A|---------------12-8~~~------4~~5-6-7-8~~|
E|----------------------------------------|

[1:48 - 2:03] x2
New York I love you but you are freaking me out.
There’s a ton of the twist buy you ran fresh out of shout.
G|----------------------------------|
D|-----3~~3-------------------------|
A|----------3-5~~~~5-4~~~~5-6-7-8~~~|
E|----------------------------------|

[2:04 - 2:11]
Like a death in the hall that you hear through your wall.
G|---10~~~/12-/14----13---------------|
D|-10--------------15--14-12----------|
A|------------------------------------|
E|--------------------------1~~~~~~~~~|

[2:12 - 2:18]
New York I love you but you are freaking me out.
G|-----------------------9/11----------|
D|--3-3------12--------12----11--------|
A|------5~~~~~~~12---12---------11-8~~~|
E|----------------13-------------------|

[2:19 - 2:27]
New York I love you but you are bringing me down
G|---------------------------------|
D|-----3-3-------------------------|
A|----------5~~~~4~~~~5-6-7-8~~~~~~|
E|---------------------------------|

[2:27 - 2:36]
New York I love you but you are bringing me down.
G|-----------------------9/11----------|
D|--3-3------12--------12----11--------|
A|------5~~~~~~~12---12---------11-8~~~|
E|----------------13-------------------|

[2:36 - 2:42]
Like a death of the heart, Jesus where do I start?
G|---------------------------------|
D|-----3-3-------------------------|
A|----------5~~~~4~~~~5-6-7-8~~~~~~|
E|---------------------------------|

[2:43 - 2:51]
But you're still the one pool where I'd happily drown
G|--10---------------------9/11-----10~~|
D|----------12--------12-------11-------|
A|-----8-------12---12-----------11-----|
E|----------------13--------------------|

[2:52 - 2:58]
And oh! Take me off your mailing list
for kids who think it still exists.

G|-10----------------------------|
D|---12-10-3------3-3------------|
A|-----------3-5~~----4---6-7-8~~|
E|-------------------------------|

[2:59 - 3:05]
Yes, for those who think it still exists
Maybe I'm wrong and maybe you're right

G|----------------6------6---8/10--|
D|-3~~-3-3-----------8-----8-------|
A|---------5~~5--------8-----------|
E|---------------------------------|

[3:06 - 3:20]
Maybe I'm wrong and maybe you're right
Maybe you're right, maybe I'm wrong
And just maybe you're right

G|-------------------------------------------|
D|-----3-3-6------------3-3------------------|
A|-7-5-------5-6-7-8--------5~~5-5-4~~5-6-7-8|
E|--------------------1----------------------|

[3:21 - 4:21] x4
And oh! Maybe mother told you true
And there'll always be somebody there for you
And you'll never be alone
But maybe she's wrong and maybe I'm right
And just maybe she's wrong
Maybe she's wrong and maybe I'm right
And if so, here's this song!

G|----------------------------------------|
D|----------------------------------------|
A|--8-8-8-8---8-8-8-8--5-5-5-5--4-4-4-4/6-|
E|----------------------------------------|

G|----------------------------------------|
D|----------------------------------------|
A|---------------------5-5-5-5--4-4-4-4/6-|
E|-1-1-1-1--1-1-1-1-----------------------|

[4:49-5:22]
[Outro] x4
G|------------10----------------------------------|
D|--------------12-------------------12-----------|
A|-8~~8--8~~8---------12----12----12-----3-5-7-8~~|
E|-----------------13----13----13-----------------|
            
Submit corrections

↑ Back to top | Tablatures and chords for acoustic guitar and electric guitar, ukulele, drums are parodies/interpretations of the original songs. You may use it for private study, scholarship, research or language learning purposes only