» » »

Lauryn Hill - Tell Him Tabs

Artists:  A B C D E F G H I J K L M N O P Q R S T U V W X Y Z # 

Tell Him Tabs

(ver. 1) Click to play this song!
Lauryn Hill
 Rating:
4.3/5 (23 votes)

 Tell Him lessons Tabs too difficult? Try these video lessons and learn fast
 
                E||------------------------------|------------------------------|
B||------------------------------|------------------------------|
G||--6------6-----6------6-------|--5------5-----5------5-------|
D||-----3-----3------3------3----|-----3-----3------3------3----|
A||-------4-----4------4------4--|-------4-----4------4------4--|
E||------------------------------|------------------------------|

  |------------------------------|-------------------------------||
  |------------------------------|-------------------------------||
  |--3------3-----3------3-------|--5------5-----5------5-------*||
  |-----4-----4------4------4----|-----4-----4------4------4----*||
  |-------4-----4------4------4--|-------6-----6------6------6---||
  |------------------------------|-------------------------------||            
Submit corrections


        Tell Him lessons Hard to play? Try these video lessons and learn fast Tell Him lessons
        
↑ Back to top | Tablatures and chords for acoustic guitar and electric guitar, ukulele, drums are parodies/interpretations of the original songs. You may use it for private study, scholarship, research or language learning purposes only