» » »

Last Dinosaurs - Purist Tabs

Artists:  A B C D E F G H I J K L M N O P Q R S T U V W X Y Z # 

Purist Tabs

(ver. 1) Click to play this song!
Last Dinosaurs
 Rating:
2.3/5 (26 votes)

 Purist  lessons Tabs too difficult? Try these video lessons and learn fast
 
                Tuning: standard

Intro:
e|--x-x-xx--x-x--x-xx-x--7-7-77-44-444--------------------------------------------------|
B|--7-7-77--7-7--7-77-3--7-7-77-xx-xxx--------------------------------------------------|
G|--6-6-66--6-6--6-66-4--7-7-77-44-444--------------------------------------------------|(x3)
D|--0-0-00--0-0--0-00-0--0-0-00-xx-xxx--------------------------------------------------|
A|--0-0-00--0-0--0-00-0--0-0-00-44-444--------------------------------------------------|
E|--x-x-xx--x-x--x-xx-x--x-x-xx-00-000--------------------------------------------------|

"It's all that's meant to
e|-----------------------------------------------------------------|
B|-14h15p--------------------------14h15p----------------17----15--|
G|-------14------------------14-16--------14----------------16-----|(x2) "Beeeeeeee yeahhhhhh"
D|----------16-14-14-1414-16-----------------16-14-14-14-----------|
A|-----------------------------------------------------------------|
E|-----------------------------------------------------------------|

e|---------------------------------------------------------------------------|
B|--14(~)--------------------------------------------------------------------|
G|---------------------------------------------------------------------------|
D|---------------------------------------------------------------------------|
A|---------------------------------------------------------------------------|
E|---------------------------------------------------------------------------| 
            
Submit corrections


        Purist  lessons Hard to play? Try these video lessons and learn fast Purist  lessons
        
↑ Back to top | Tablatures and chords for acoustic guitar and electric guitar, ukulele, drums are parodies/interpretations of the original songs. You may use it for private study, scholarship, research or language learning purposes only