» » »

Last Dinosaurs - Eleven Tabs

Artists:  A B C D E F G H I J K L M N O P Q R S T U V W X Y Z # 

Eleven Tabs

(ver. 1) Click to play this song!
Last Dinosaurs
 Rating:
4.3/5 (18 votes)

 Eleven lessons Tabs too difficult? Try these video lessons and learn fast
 
                [Intro]

e|-----------------|----------------|-----------------|-----------------------------|
B|-7-7-7-7-7-7-7\--|--2-2-2-2-2-2/--|--8-8-8-8-8-8-8--|-7-7-7-7-7-7-7-7-------------|
G|-7-7-7-7-7-7-7\--|--2-2-2-2-2-2/--|--7-7-7-7-7-7-7--|-7-7-9-9-7-7-9-9-------------|
D|-7-7-7-7-9-9-9\--|--2-2-2-4-4-4/--|--9-9-9-9-9-9-9--|-9-9-9-9-9-9-9-9-------------| x2
A|-----------------|----------------|-----------------|-----------------------------|
E|-----------------|----------------|-----------------|-----------------------------|


[Chorus]

e|-----------------|----------------|-----------------|-----------------------------|
B|-7-7-7-7-7-7-7\--|--2-2-2-2-2-2/--|--8-8-8-8-8-8-8--|-7-7-7-7-7-7-7-7-------------|
G|-7-7-7-7-7-7-7\--|--2-2-2-2-2-2/--|--7-7-7-7-7-7-7--|-7-7-9-9-7-7-9-9-------------|
D|-7-7-7-7-9-9-9\--|--2-2-2-4-4-4/--|--9-9-9-9-9-9-9--|-9-9-9-9-9-9-9-9-------------| x4
A|-----------------|----------------|-----------------|-----------------------------|
E|-----------------|----------------|-----------------|-----------------------------|


[Verse] x2

e|---------------|--------------|---------------|-----------------|
B|-7--7--7-7-7-7-|-7--7-7--7-7--|-7--7--7-7-7-7-|-7--7-7--7-7-----|
G|-7--7--7-7-7-7-|-7--7-7--7-7--|-6--6--6-6-6-6-|-6--6-6--6-6-----|
D|-7--7--7-7-7-7-|-7--7-7--7-7--|-7--7--7-7-7-7-|-7--7-7--7-7-----|
A|---------------|--------------|---------------|-----------------|
E|---------------|--------------|---------------|-----------------|

e|---------------|--------------|---------------|-----------------|
B|-5--5--5-5-5-5-|-5--5-5--5-5--|-3--3--3-3-3-3-|-2--2-2--2-2-----|
G|-4--4--4-4-4-4-|-4--4-4--4-4--|-4--4--4-4-4-4-|-4--4-4--4-4-----|
D|-5--5--5-5-5-5-|-5--5-5--5-5--|-5--5--5-5-5-5-|-5--5-5--5-5-----|
A|---------------|--------------|---------------|-----------------|
E|---------------|--------------|---------------|-----------------|


[Chorus]

e|-----------------|----------------|-----------------|-----------------------------|
B|-7-7-7-7-7-7-7\--|--2-2-2-2-2-2/--|--8-8-8-8-8-8-8--|-7-7-7-7-7-7-7-7-------------|
G|-7-7-7-7-7-7-7\--|--2-2-2-2-2-2/--|--7-7-7-7-7-7-7--|-7-7-9-9-7-7-9-9-------------|
D|-7-7-7-7-9-9-9\--|--2-2-2-4-4-4/--|--9-9-9-9-9-9-9--|-9-9-9-9-9-9-9-9-------------| x4
A|-----------------|----------------|-----------------|-----------------------------|
E|-----------------|----------------|-----------------|-----------------------------|


[Verse] x2

e|---------------|--------------|---------------|-----------------|
B|-7--7--7-7-7-7-|-7--7-7--7-7--|-7--7--7-7-7-7-|-7--7-7--7-7-----|
G|-7--7--7-7-7-7-|-7--7-7--7-7--|-6--6--6-6-6-6-|-6--6-6--6-6-----|
D|-7--7--7-7-7-7-|-7--7-7--7-7--|-7--7--7-7-7-7-|-7--7-7--7-7-----|
A|---------------|--------------|---------------|-----------------|
E|---------------|--------------|---------------|-----------------|

e|---------------|--------------|---------------|-----------------|
B|-5--5--5-5-5-5-|-5--5-5--5-5--|-3--3--3-3-3-3-|-2--2-2--2-2-----|
G|-4--4--4-4-4-4-|-4--4-4--4-4--|-4--4--4-4-4-4-|-4--4-4--4-4-----|
D|-5--5--5-5-5-5-|-5--5-5--5-5--|-5--5--5-5-5-5-|-5--5-5--5-5-----|
A|---------------|--------------|---------------|-----------------|
E|---------------|--------------|---------------|-----------------|


[Chorus]

e|-----------------|----------------|-----------------|-----------------------------|
B|-7-7-7-7-7-7-7\--|--2-2-2-2-2-2/--|--8-8-8-8-8-8-8--|-7-7-7-7-7-7-7-7-------------|
G|-7-7-7-7-7-7-7\--|--2-2-2-2-2-2/--|--7-7-7-7-7-7-7--|-7-7-9-9-7-7-9-9-------------|
D|-7-7-7-7-9-9-9\--|--2-2-2-4-4-4/--|--9-9-9-9-9-9-9--|-9-9-9-9-9-9-9-9-------------| x4
A|-----------------|----------------|-----------------|-----------------------------|
E|-----------------|----------------|-----------------|-----------------------------|


[Solo]

e|-----------------|-------------|-------------|-----------------|
B|-----------------|-------------|-------------|-----------------|
G|-----------------|-------------|-------------|-\6--4---4--6----|
D|-----------------|-2-2-2-2-4-4-|2-4-4--4-4-2-|-----------------|
A|-2-2-2-2-5-5-5-5-|-------------|-------------|-----------------|
E|-----------------|-------------|-------------|-----------------|

e|------------------------|----------------|--------------------|---------------------|
B|------------------------|----------------|--------------------|---------------------|
G|-11h12----11p7---11p7---|-11p7---9--7--5-|-4h5p4---4--5--7--5-|-4-------------------|
D|-------9-------9------9-|------9---------|-------7------------|----7~---------------|
A|------------------------|----------------|--------------------|---------------------|
E|------------------------|----------------|--------------------|---------------------|

e|-------------------------|------------|------------------------|--------------------|
B|-10-10-10-10-------------|------------|-10b12r10-10-10---------|--------------------|
G|-------------7-7-7-7-----|-6-6-6-7--7-|----------------7-7-7-7-|-6-6-6-7-7p0--------|
D|-------------------------|------------|------------------------|--------------------|
A|-------------------------|------------|------------------------|--------------------|
E|-------------------------|------------|------------------------|--------------------|

e|-------------------------|-------------------|--------------------------------------|
B|-------------------------|-------------------|-10b11--10h11r10-8--10b11r10~---------|
G|-9b-9b-9b-9b-9b-9b-9b-9b-|-9b/-11-12-14-11~--|--------------------------------------|
D|-------------------------|-------------------|--------------------------------------|
A|-------------------------|-------------------|--------------------------------------|
E|-------------------------|-------------------|--------------------------------------|


[Verse] x2

e|---------------|--------------|---------------|-----------------|
B|-7--7--7-7-7-7-|-7--7-7--7-7--|-7--7--7-7-7-7-|-7--7-7--7-7-----|
G|-7--7--7-7-7-7-|-7--7-7--7-7--|-6--6--6-6-6-6-|-6--6-6--6-6-----|
D|-7--7--7-7-7-7-|-7--7-7--7-7--|-7--7--7-7-7-7-|-7--7-7--7-7-----|
A|---------------|--------------|---------------|-----------------|
E|---------------|--------------|---------------|-----------------|

e|---------------|--------------|---------------|-----------------|
B|-5--5--5-5-5-5-|-5--5-5--5-5--|-3--3--3-3-3-3-|-2--2-2--2-2-----|
G|-4--4--4-4-4-4-|-4--4-4--4-4--|-4--4--4-4-4-4-|-4--4-4--4-4-----|
D|-5--5--5-5-5-5-|-5--5-5--5-5--|-5--5--5-5-5-5-|-5--5-5--5-5-----|
A|---------------|--------------|---------------|-----------------|
E|---------------|--------------|---------------|-----------------|


[Bridge]

e|-----------------|-----------------|-----------------|-------------------------|
B|-7-7-7-7-7-7-7-7-|-7-7-7-7-7-7-7-7-|-7-7-7-7-7-7-7-7-|-8-8-8-8-8-8-8-8---------|
G|-7-7-7-7-7-7-7-7-|-7-7-7-7-7-7-7-7-|-7-7-7-7-7-7-7-7-|-7-7-7-7-7-7-7-7---------|
D|-7-7-7-7-7-7-7-7-|-7-7-7-7-7-7-7-7-|-8-8-8-8-8-8-8-8-|-9-9-9-9-9-9-9-9---------| x2
A|-----------------|-----------------|-----------------|-------------------------|
E|-----------------|-----------------|-----------------|-------------------------|

e|-----------------|-----------------|-----------------|-------------------------|
B|-8--8--8-8--8--8-|-8--8-8--7--7--7-|-7--7--7--7--7-7-|-8--8--8-8--8--8--8--8-8-|
G|-7--7--7-7--7--7-|-7--7-7--7--7--7-|-7--7--7--7--7-7-|-7--7--7-7--7--7--7--7-7-|
D|-9--9--9-9--9--9-|-9--9-9--7--7--7-|-7--7--7--7--7-7-|-9--9--9-9--9--9--9--9-9-|
A|-----------------|-----------------|-----------------|-------------------------|
E|-----------------|-----------------|-------------------------------------------|

e|-----------------|--------------------------------|
B|-2-2-2-2-2-2-2-2-|-2-2-2-2-2-2-2-2----------------|
G|-2-2-2-2-2-2-2-2-|-2-2-2-2-2-2-2-2----------------|
D|-2-2-2-2-2-2-2-2-|-2-2-2-2-2-2-2-2----------------|
A|-----------------|--------------------------------|
E|-----------------|--------------------------------|


[Interlude]

e|----------|---------|-0--------|-------|---------|-----0--------------------|
B|---7------|---2-----|--0-------|-7-----|--2------|-----0--------------------|
G|---7------|---2-----|---0------|-7-----|--2------|-----0--------------------|
D|---7------|---2-----|----2-----|-7-----|--2------|-----2--------------------|
A|----------|---------|-----2----|-------|---------|-----2--------------------|
E|----------|---------|----------|-------|---------|-----0--------------------|


[Chorus]
Gtr 1:
e|-----------------|----------------|-----------------|-----------------------------|
B|-7-7-7-7-7-7-7\--|--2-2-2-2-2-2/--|--8-8-8-8-8-8-8--|-7-7-7-7-7-7-7-7-------------|
G|-7-7-7-7-7-7-7\--|--2-2-2-2-2-2/--|--7-7-7-7-7-7-7--|-7-7-9-9-7-7-9-9-------------|
D|-7-7-7-7-9-9-9\--|--2-2-2-4-4-4/--|--9-9-9-9-9-9-9--|-9-9-9-9-9-9-9-9-------------| x8
A|-----------------|----------------|-----------------|-----------------------------|
E|-----------------|----------------|-----------------|-----------------------------|


[Outro Solo]
Gtr 2: 
e|----------------------------|--------------------|-----------------|-------------------|
B|----------------------------|--------------------|-----------------|-------------------|
G|-12-12-11-11----------------|--------------------|-----------------|-------------------|
D|--------------12-12---------|-11-11-11-11-12--11-|-9-9-9-9-9-9-9-9-|-9-9-9-9-9-9-9-9---|
A|---------------------12-12--|--------------------|-----------------|-------------------|
E|----------------------------|--------------------|-----------------|-------------------|

e|----------------------------|--------------------|-----------------|-------------------|
B|----------------------------|--------------------|-----------------|-------------------|
G|-12-12-11-11----------------|--------------------|-----------------|-------------------|
D|--------------12-12---------|-11-11-11-11-12--11-|-9-9-9-9-9-9-9---|-------------------|
A|--------------------12-12---|--------------------|-----------------|-9-9-9-9-7-7-7-7-7-|
E|----------------------------|--------------------|-----------------|-------------------|

e|----------------------------|--------------------|-----------------|-------------------|
B|----------------------------|--------------------|-----------------|-------------------|
G|-12-12-11-11----------------|--------------------|-----------------|-------------------|
D|--------------12-12---------|-11-11-11-11-12--11-|-9-9-9-9-9-9-9-9-|-9-9-9-9-9-9-9-9---|
A|---------------------12-12--|--------------------|-----------------|-------------------|
E|----------------------------|--------------------|-----------------|-------------------|

e|----------------------------|--------------------|-----------------|-----------------------| 
B|----------------------------|--------------------|-----------------|-----------------------|
G|-12-12-11-11----------------|--------------------|-----------------|-----------------------|
D|--------------12-12---------|-11-11-11-11-12--11-|-9-9-9-9-9-9-9---|-----------------------|
A|--------------------12-12---|--------------------|-----------------|-9-9-9-9-7-7-7-7-7---9-|
E|----------------------------|--------------------|-----------------|-----------------------|

            
Submit corrections


        Eleven lessons Hard to play? Try these video lessons and learn fast Eleven lessons
        
↑ Back to top | Tablatures and chords for acoustic guitar and electric guitar, ukulele, drums are parodies/interpretations of the original songs. You may use it for private study, scholarship, research or language learning purposes only