Home » L » Land Of Talk »

Land Of Talk - Cloak And Cipher Tabs

Artists:  A B C D E F G H I J K L M N O P Q R S T U V W X Y Z # 

Cloak And Cipher Tabs

(ver. 1) Click to play this song!
Land Of Talk
 Rating:
4.2/5 (20 votes)
                From low "E" to High "e"
Tuning:E-G#-B-G#-B-e


Intro/ Verse
Ight it leaks through Makes my day Know all you love It lacks soul And all of the
candle may catch What you can use I just saw you Rhythm I tried It would take you 
only a while And to take it suddenly fair it won't do
Why'd you say you what up and went? Lied to kid you when you said send Though 
meanwhile that soft hate It was true Never saw you live in that call Lookin back
and write on the wall Did you think it would beat this heart well String it through
e |--(0)------------0--0--0-----------(0)(0)(0)(0)----------------------------|
B |--(0)------------0--0--0-----------(0)(0)(0)(0)----------------------------|
G#|---0--0---0------0--0--0------------0--0--0--0-----------------------------|
B |---0--0---0---4--4--4--4------0-----0--0--0--0-----------------------------|
G#|---0--3-/-5---0-(0)(0)(0)-----0-----0--0--0--0-----------------------------|
E |--(0)(0)-(0)-(0)--------------5-----5--5--5--5-----------------------------|
The Zeros in the parenthesis can be played if wanted in some parts of the song you may
hear them being play but its your choice on how you want to play it.



Pre-Chorus:
Loose choir Unsteady on the stage What you lovest well remains Loose choir
Love it well and it will stay....
e |---------------------------------------------------------------------------|
B |---------------------------------------------------------------------------|
G#|(0)(0)-(0)(0)-(0)(0)-(0)(0)-(0)(0)-----------------------------------------|
B |-2--22--2--22--2--22--2--22--2--22-----------------------------------------|
G#|-1--11--1--11--1--11--1--11--1--11-----------------------------------------|
E |-2--22--2--22--2--22--2--22--2--22-----------------------------------------|


Chorus:
I won't redeem another Lose that
I won't redeem another Lose that I won't redeem another Loose that
Lean on the need...
e |-7-77-7-77-7-77-77----5-55-5-55-5-55-55-------------------------------------|
B |-7-77-7-77-7-77-77----5-55-5-55-5-55-55-------------------------------------|
G#|-7-77-7-77-7-77-77----5-55-5-55-5-55-55-------------------------------------|
B |-7-77-7-77-7-77-77----5-55-5-55-5-55-55-------------------------------------|x3 
G#|-7-77-7-77-7-77-77----5-55-5-55-5-55-55-------------------------------------|
E |-7-77-7-77-7-77-77----5-55-5-55-5-55-55-------------------------------------|

e |-7-77-7-77-7-77-77---|
B |-7-77-7-77-7-77-77---|
G#|-7-77-7-77-7-77-77---|
B |-7-77-7-77-7-77-77---|
G#|-7-77-7-77-7-77-77---|
E |-7-77-7-77-7-77-77---|

Verse:
And I know you never knew quite How it feels I've opened the night It's enough that
connections aren't when It was true I just saw you with him I tried It would only take  
you a while And to take it suddenly fair It won't do Never saw you live in that call 
Lookin back and write on the wall Did you think it would beat this heart well
String it through....
e |--(0)------------0--0--0-----------(0)(0)(0)(0)---------------------------|
B |--(0)------------0--0--0-----------(0)(0)(0)(0)---------------------------|
G#|---0--0---0------0--0--0------------0--0--0--0----------------------------|
B |---0--0---0---4--4--4--4------0-----0--0--0--0----------------------------|
G#|---0--3-/-5---0-(0)(0)(0)-----0-----0--0--0--0----------------------------|
E |--(0)(0)-(0)-(0)--------------5-----5--5--5--5----------------------------|



Pre-Chorus
Loose choir Unsteady on the stage What you lovest well remains Loose choir
Love it well and it will stay 
e |---------------------------------------------------------------------------|
B |---------------------------------------------------------------------------|
G#|(0)(0)-(0)(0)-(0)(0)-(0)(0)-(0)(0)-----------------------------------------|
B |-2--22--2--22--2--22--2--22--2--22-----------------------------------------|
G#|-1--11--1--11--1--11--1--11--1--11-----------------------------------------|
E |-2--22--2--22--2--22--2--22--2--22-----------------------------------------|



Chorus:
I won't redeem another Lose that I won't redeem another Lose that 
I won't redeem another Lose that
Lean on the need....
e |-7-77-7-77-7-77-77----5-55-5-55-5-55-55-------------------------------------|
B |-7-77-7-77-7-77-77----5-55-5-55-5-55-55-------------------------------------|
G#|-7-77-7-77-7-77-77----5-55-5-55-5-55-55-------------------------------------|
B |-7-77-7-77-7-77-77----5-55-5-55-5-55-55-------------------------------------|x3 
G#|-7-77-7-77-7-77-77----5-55-5-55-5-55-55-------------------------------------|
E |-7-77-7-77-7-77-77----5-55-5-55-5-55-55-------------------------------------|

e |-7-77-7-77-7-77-77---|
B |-7-77-7-77-7-77-77---|
G#|-7-77-7-77-7-77-77---|
B |-7-77-7-77-7-77-77---|
G#|-7-77-7-77-7-77-77---|
E |-7-77-7-77-7-77-77---|



Outro
e |--(0)------------0--0--0-----------(0)(0)(0)(0)----(0)~~~-------------------|
B |--(0)------------0--0--0-----------(0)(0)(0)(0)----(0)~~~-------------------|
G#|---0--0---0------0--0--0------------0--0--0--0------0~~~--------------------|
B |---0--0---0---4--4--4--4------0-----0--0--0--0------0~~~--------------------|
G#|---0--3-/-5---0-(0)(0)(0)-----0-----0--0--0--0------0~~~--------------------|
E |--(0)(0)-(0)-(0)--------------5-----5--5--5--5------0~~~--------------------|
            
Submit corrections

↑ Back to top | Tablatures and chords for acoustic guitar and electric guitar, ukulele, drums are parodies/interpretations of the original songs. You may use it for private study, scholarship, research or language learning purposes only