» » »

Land Of Talk - Blangee Blee Bass

Artists:  A B C D E F G H I J K L M N O P Q R S T U V W X Y Z # 

Blangee Blee Bass

(ver. 1) Click to play this song!
Land Of Talk
 Rating:
4/5 (5 votes)
                This is my first tab, and should be correct for the most part. Love this song and
couldn't believe there was no tab for it!


Intro
------------------------------------------------------------------|
---10-10-10-------10-10-10--9-----10-10-10---------10-10-10-------|
-------------10-----------------------------10--------------------|
------------------------------------------------------------------|

---------------------------|
---------------------------|
---------------------------|
----8--8-8--8-8--8-7----7--| x4


Verse
---------------------------|
---------------------------|
---------------------------|
----8--8-8--8-8--8-7----7--| x4


Chorus
------------------7-4------------------0-0-0---------------------------|
-------------9-7------------0--2-2-2-0---------------------------------|
------10-7-------------------------------------------------------------|
--8-------------------------------------------0--3-3-3---3-7-7--8------| x4


---------------------------|
---------------------------|
---------------------------|
----8--8-8--8-8--8-7----7--| x4


Verse
---------------------------|
---------------------------|
---------------------------|
----8--8-8--8-8--8-7----7--| x4

Chorus
------------------7-4------------------0-0-0---------------------------|
-------------9-7------------0--2-2-2-0---------------------------------|
------10-7-------------------------------------------------------------|
--8-------------------------------------------0--3-3-3---3-7-7--8------| x6

Outro
----------------------------------------------------------------|
--------------------5-5---------9-9------7-7--------------------|
---------7-7-3-3--------7-7---------5-5------5-5-7--------------|
----5-----------------------------------------------------------| x6
            
Submit corrections

↑ Back to top | Tablatures and chords for acoustic guitar and electric guitar, ukulele, drums are parodies/interpretations of the original songs. You may use it for private study, scholarship, research or language learning purposes only