» » »

Lake Of Tears - The Shadowshires Tabs

Artists:  A B C D E F G H I J K L M N O P Q R S T U V W X Y Z # 

The Shadowshires Tabs

(ver. 1) Click to play this song!
Lake Of Tears
 Rating:
4.2/5 (5 votes)
    The Shadowshires lessons Tabs too difficult? Try these video lessons and learn fast
                
 

------------------------------------------------------------------------------
------------------------------------------------------------------------------
------------------------------------------------------------------------------
-3---5---3--------------------------------------------------------------------
-3---5---3--------------------------------------------------------------------
-3---5---3--------------------------------------------------------------------
 intro                                                                        

------------------------------------------------------------------------------
------------------------------------------------------------------------------
------------------------------------------------------------------------------
--5--8-7--3--8-7--5--8-7--3--8-7--5--8-7--3--8-7--5--8-7--3--8-7--5-----------
--5--8-7--3--8-7--5--8-7--3--8-7--5--8-7--3--8-7--5--8-7--3--8-7--5-----------
--5--8-7--3--8-7--5--8-7--3--8-7--5--8-7--3--8-7--5--8-7--3--8-7--5-----------
  verse riff                                                                  

------------------------------------------------------------------------------
------------------------------------------------------------------------------
------------------------------------------------------------------------------
--5-5-5-5-5-3-3-3-3-5-5-5-5-3-3-3-3-5-5-5-5-3-3-3-3-5-5-5-5-3-3-3-3-5-5-5-5-1-
--5-5-5-5-5-3-3-3-3-5-5-5-5-3-3-3-3-5-5-5-5-3-3-3-3-5-5-5-5-3-3-3-3-5-5-5-5-1-
--5-5-5-5-5-3-3-3-3-5-5-5-5-3-3-3-3-5-5-5-5-3-3-3-3-5-5-5-5-3-3-3-3-5-5-5-5-1-
 chorus                                                                       

------------------------------------------------------------------------------
------------------------------------------------------------------------------
------------------------------------------------------------------------------
--10--5--8--3--10--5--8--3----------------------------------------------------
--10--5--8--3--10--5--8--3----------------------------------------------------
--10--5--8--3--10--5--8--3----------------------------------------------------
  Bridge
            
Submit corrections

↑ Back to top | Tablatures and chords for acoustic guitar and electric guitar, ukulele, drums are parodies/interpretations of the original songs. You may use it for private study, scholarship, research or language learning purposes only