Home » L » Lake Of Tears »

Lake Of Tears - Demon You Lily Anne Tabs

Artists:  A B C D E F G H I J K L M N O P Q R S T U V W X Y Z # 

Demon You Lily Anne Tabs

(ver. 1) Click to play this song!
Lake Of Tears
[Verse]
e|-----------------|------------------|-----------------|------------------|
B|-----------------|------------------|-----------------|------------------|
G|-----------------|------------------|-----------------|------------------|
D|-----------------|-------------10-9-|-----------------|-------------10-9-|
A|-7-7-7-7-7-7-7-7-|-5-5-5-5-5-5-10-9-|-7-7-7-7-7-7-7-7-|-5-5-5-5-5-5-10-9-|
E|-5-5-5-5-5-5-5-5-|-3-3-3-3-3-3-8--7-|-5-5-5-5-5-5-5-5-|-3-3-3-3-3-3-8--7-|
   . . . . . . . .   . . . . . .        . . . . . . . .   . . . . . .
 
e|-----------------|-----------------|-----------------|
B|-----------------|-----------------|-----------------|
G|-----------------|-----------------|-------------5-4-|
D|-----------------|-----------------|-------------5-4-|
A|-7-7-7-7-7-7-7-7-|-5-5-5-5-5-5-5-5-|-3-3-3-3-3-3-3-2-|
E|-5-5-5-5-5-5-5-5-|-3-3-3-3-3-3-3-3-|-1-1-1-1-1-1-----|
   . . . . . . . .   . . . . . . . .   . . . . . .
 
e|-----------------|------------------|-----------------|------------------|
B|-----------------|------------------|-----------------|------------------|
G|-----------------|------------------|-----------------|------------------|
D|-7-7-7-7-7-7-7-7-|-5-5-5-5-5-5-10-9-|-7-7-7-7-7-7-7-7-|-5-5-5-5-5-5-10-9-|
A|-7-7-7-7-7-7-7-7-|-5-5-5-5-5-5-10-9-|-7-7-7-7-7-7-7-7-|-5-5-5-5-5-5-10-9-|
E|-5-5-5-5-5-5-5-5-|-3-3-3-3-3-3-8--7-|-5-5-5-5-5-5-5-5-|-3-3-3-3-3-3-8--7-|
 
e|-----------------|-----------------|-----------------|-----------------|
B|-----------------|-----------------|-----------------|-----------------|
G|-----------------|-----------------|-----------------|-----------------|
D|-7-7-7-7-7-7-7-7-|-5-5-5-5-5-5-5-5-|-3-3-3-3-3-3-3-3-|-3-3-3-3-3-x-----|
A|-7-7-7-7-7-7-7-7-|-5-5-5-5-5-5-5-5-|-3-3-3-3-3-3-3-3-|-3-3-3-3-3-x-----|
E|-5-5-5-5-5-5-5-5-|-3-3-3-3-3-3-3-3-|-1-1-1-1-1-1-1-1-|-1-1-1-1-1-x-----|
 
[Chorus]
e|-----------------|-----------------|
B|-----------------|-----------------| x4
G|-----------------|-----------------|
D|-7-----5---3---7-|-5---------------|
A|-7-----5---3---7-|-5---------------|
E|-5-----3---1---5-|-3---------------|
 
[Verse]
e|-----------------|------------------|-----------------|------------------|
B|-----------------|------------------|-----------------|------------------|
G|-----------------|------------------|-----------------|------------------|
D|-----------------|-------------10-9-|-----------------|-------------10-9-|
A|-7-7-7-7-7-7-7-7-|-5-5-5-5-5-5-10-9-|-7-7-7-7-7-7-7-7-|-5-5-5-5-5-5-10-9-|
E|-5-5-5-5-5-5-5-5-|-3-3-3-3-3-3-8--7-|-5-5-5-5-5-5-5-5-|-3-3-3-3-3-3-8--7-|
   . . . . . . . .   . . . . . .        . . . . . . . .   . . . . . .
 
e|-----------------|-----------------|-----------------|
B|-----------------|-----------------|-----------------|
G|-----------------|-----------------|-------------5-4-|
D|-----------------|-----------------|-------------5-4-|
A|-7-7-7-7-7-7-7-7-|-5-5-5-5-5-5-5-5-|-3-3-3-3-3-3-3-2-|
E|-5-5-5-5-5-5-5-5-|-3-3-3-3-3-3-3-3-|-1-1-1-1-1-1-----|
   . . . . . . . .   . . . . . . . .   . . . . . .
 
e|-----------------|------------------|-----------------|------------------|
B|-----------------|------------------|-----------------|------------------|
G|-----------------|------------------|-----------------|------------------|
D|-7-7-7-7-7-7-7-7-|-5-5-5-5-5-5-10-9-|-7-7-7-7-7-7-7-7-|-5-5-5-5-5-5-10-9-|
A|-7-7-7-7-7-7-7-7-|-5-5-5-5-5-5-10-9-|-7-7-7-7-7-7-7-7-|-5-5-5-5-5-5-10-9-|
E|-5-5-5-5-5-5-5-5-|-3-3-3-3-3-3-8--7-|-5-5-5-5-5-5-5-5-|-3-3-3-3-3-3-8--7-|
 
e|-----------------|-----------------|-----------------|-----------------|
B|-----------------|-----------------|-----------------|-----------------|
G|-----------------|-----------------|-----------------|-----------------|
D|-7-7-7-7-7-7-7-7-|-5-5-5-5-5-5-5-5-|-3-3-3-3-3-3-3-3-|-3-3-3-3-3-x-----|
A|-7-7-7-7-7-7-7-7-|-5-5-5-5-5-5-5-5-|-3-3-3-3-3-3-3-3-|-3-3-3-3-3-x-----|
E|-5-5-5-5-5-5-5-5-|-3-3-3-3-3-3-3-3-|-1-1-1-1-1-1-1-1-|-1-1-1-1-1-x-----|
 
[Chorus]
e|-----------------|-----------------|
B|-----------------|-----------------| x4
G|-----------------|-----------------|
D|-7-----5---3---7-|-5---------------|
A|-7-----5---3---7-|-5---------------|
E|-5-----3---1---5-|-3---------------|
 
[Interlude]
e|--------------|---------------|    |--------------|---------------|    |--------------|--------------|
B|--------------|---------------|    |--------------|---------------|    |--------------|--------------|
G|--------------|-7-------------| x3 |--------------|---------------| x1 |--------------|--------------| x4
D|-2------------|-7-------------|    |-2------------|-3-------------|    |-7------------|-5------------|
A|-2------------|-5-------------|    |-2------------|-3-------------|    |-7------------|-5------------|
E|-0------------|---------------|    |-0------------|-1-------------|    |-5------------|-3------------|
 
[Verse]
e|-----------------|-----------------|     |-----------------|-----------------|
B|-----------------|-----------------| x7  |-----------------|-----------------|
G|-----------------|-----------------|     |-----------------|-----------------|
D|-7---7---5---3-7-|-5---5---5---5-5-|     |-7---7---5---3-7-|-5---------------|
A|-7---7---5---3-7-|-5---5---5---5-5-|     |-7---7---5---3-7-|-5---------------|
E|-5---5---3---1-5-|-3---3---3---3-3-|     |-5---5---3---1-5-|-3---------------|
            
Submit corrections

↑ Back to top | Tablatures and chords for acoustic guitar and electric guitar, ukulele, drums are parodies/interpretations of the original songs. You may use it for private study, scholarship, research or language learning purposes only