» » »

Ladytron - Playgirl Bass

Artists:  A B C D E F G H I J K L M N O P Q R S T U V W X Y Z # 

Playgirl Bass

(ver. 1) Click to play this song!
Ladytron
 Rating:
4/5 (5 votes)
                ----------------------------------------------------------------------------
----------------------------------------------------------------------------


Tuning: Standard - EADG

Ladytron is all keyboards and synth but if you like the song and want to play it with a
try this. There are only two sections and the times in () are the beginning and ending
each part. Please note you will repeat the lines many times in each section I didn't 
how many times you play the line in each section. Also please note that I may have a
version and the times are merely rough guidelines for the changes in the song. If you 
any corrections or comments feel free to let me know.

"Bass" comes in at (0:16) on my version. Rest during (2:40-2:48)

First Part (0:16-0:48)(1:04-1:35)(2:09-2:40)

G|---------------4--4--4--4---------6--6--------6--6-----------------------|
D|--6--6--6--6----------------4------------4-------------------------------|
A|--------------2--2--2--2--------4--4--------4--4-------------------------|
E|-4--4--4--4----------------2-2----------2-2------------------------------|

Second Part (0:49-1:04)(1:36-2:08)(2:49-3:45)

G|--4--4--4--------------------6--6--6------------------------------------|
D|----------------4--4--4-------------------6--6--6-----------------------|
A|-2--2--2--2-4-----------2-3-4--4--4-4-6---------------------------------|
E|---------------2--2--2-------------------4--4--4--4-6-------------------|
            
Submit corrections

↑ Back to top | Tablatures and chords for acoustic guitar and electric guitar, ukulele, drums are parodies/interpretations of the original songs. You may use it for private study, scholarship, research or language learning purposes only