» » »

Lady Gaga - Million Reasons Tabs

Artists:  A B C D E F G H I J K L M N O P Q R S T U V W X Y Z # 

Million Reasons Tabs

(ver. 1) Click to play this song!
Lady Gaga
 Rating:
4.3/5 (13 votes)

 Million Reasons lessons Tabs too difficult? Try these video lessons and learn fast
 
                [Verse 1]
e|-----------------------------|-------------------------|
B|-----------------------------|-------------------------|
G|-----------------------------|-------------------------|
D|-------------------------2-2-|-------------------------|
A|-2-3-3-3-3-3-3-3-3-3-3-3-----|-3-3-3-3-3-3-3-3-3-3-3-3-|
E|-----------------------------|-------------------------|

[Verse 1 cont.]
e|-----------------------------|-------------------------|
B|-----------------------------|-------------------------|
G|-----------------------------|-------------------------|
D|-2-2-------------------------|-------------------------|
A|-----3-3-3-3-3-3-3-0---3-3-3-|-3-3-0---3-3-3-3-3-3-0---|
E|---------------------3-------|-------3---------------3-|

[Verse 1 cont.]
e|-----------------------------|-------------------------|
B|-----------------------------|-------------------------|
G|-----------------------------|-------------------------|
D|-----------------------------|-------------------------|
A|-3-3-3-3-3-0-----------------|-------------------------|
E|-------------3---------------|-------------------------|

[Verse 1]
e|-----------------------------|-------------------------|
B|-----------------------------|-------------------------|
G|-----------------------------|-------------------------|
D|-------------------------2-2-|-------------------------|
A|-2-3-3-3-3-3-3-3-3-3-3-3-----|-3-3-3-3-3-3-3-3-3-3-3-3-|
E|-----------------------------|-------------------------|

[Verse 1 cont.]
e|-----------------------------|-------------------------|
B|-----------------------------|-------------------------|
G|-----------------------------|-------------------------|
D|-2-2-------------------------|-------------------------|
A|-----3-3-3-3-3-3-3-0---3-3-3-|-3-3-0---3-3-3-3-3-3-0---|
E|---------------------3-------|-------3---------------3-|

[Verse 1 cont.]
e|-----------------------------|-------------------------|
B|-----------------------------|-------------------------|
G|-----------------------------|-------------------------|
D|-----------------------------|-------------------------|
A|-3-3-3-3-3-0-----------------|-------------------------|
E|-------------3---------------|-------------------------|

[Chorus]
e|-----------------------------|-------------------------|
B|-----------------------------|-------------------------|
G|-2-0---0---------------0-----|---2-0---0---------------|
D|-----2---2-2---2-2-2-2-------|-2-----2---2-2---4-4-4-4-|
A|-------------3-----------3-3-|---------------3---------|
E|-----------------------------|-------------------------|

[Chorus cont.]
e|-----------------------------|-------------------------|
B|-----------------------------|-1-0-0-0-----------------|
G|-0-------2---2---2-----------|-----------------------0-|
D|-------2---2---2---2-0-2-2-2-|-----------0-0-0-0-0-2---|
A|---3-3-----------------------|-------------------------|
E|-----------------------------|---------3---------------|

[Chorus cont.]
e|-----------------------------|-------------------------|
B|-----------------------------|-------------------------|
G|-----------------------------|-------------------------|
D|-0---------------------------|-------------------------|
A|---3-3-3-3-------------------|-------------------------|
E|-----------------------------|-------------------------|

[Verse 2]
e|-----------------------------|-------------------------|
B|-----------------------------|-------------------------|
G|-----------------------------|-------------------------|
D|-------------------------2-2-|-------------------------|
A|-3-3-3-3-3-3-3-3-3-3-3-3-----|-3-3-3-3-3-3-3-3-3-3-3-3-|
E|-----------------------------|-------------------------|

[Verse 2 cont.]
e|-----------------------------|-------------------------|
B|-----------------------------|-------------------------|
G|-----------------------------|-------------------------|
D|-2-2-------------------------|-------------------------|
A|-----0-3-3-3-3-3-3-3-0-------|-3-3-3-3-3-0---3-3-3-3-3-|
E|-----------------------3-----|-------------3-----------|

[Verse 2 cont.]
e|-----------------------------|-------------------------|
B|-----------------------------|-------------------------|
G|-----------------------------|-------------------------|
D|-----------------------------|-------------------------|
A|-3-0---3-3-3-3-3-0-----------|-------------------------|
E|-----3-------------3---------|-------------------------|

[Chorus]
e|-----------------------------|-------------------------|
B|-----------------------------|-------------------------|
G|-2-0---0---------------0-----|---2-0---0---------------|
D|-----2---2-2---2-2-2-2-------|-2-----2---2-2---4-4-4-4-|
A|-------------3-----------3-3-|---------------3---------|
E|-----------------------------|-------------------------|

[Chorus cont.]
e|-----------------------------|-------------------------|
B|-----------------------------|-1-0-0-0-----------------|
G|-0-------2---2---2-----------|-----------------------0-|
D|-------2---2---2---2-0-2-2-2-|-----------0-0-0-0-0-2---|
A|---3-3-----------------------|-------------------------|
E|-----------------------------|---------3---------------|

[Chorus cont.]
e|-----------------------------|-------------------------|
B|-----------------------------|-------------------------|
G|-----------------------------|-------------------------|
D|-0---------------------------|-------------------------|
A|---3-3-3-3-------------------|-------------------------|
E|-----------------------------|-------------------------|

[Bridge]
e|-----------------------------|-------------------------|
B|-----------------------------|-------------------------|
G|-------------------2---2-----|-----------------2---2---|
D|-0-3-2-0-2---2-2-2---2---2-0-|---0-2-2-2-2-2-2---2---2-|
A|-----------3-----------------|-3-----------------------|
E|-----------------------------|-------------------------|

[Bridge cont.]
e|-----------------------------|-------------------------|
B|---1-0-----------------------|-------------------------|
G|-2-----0---------------------|-------------------------|
D|---------2-2-0-0-2-0---------|---0-0-0-0-0-2-0---0-----|
A|---------------------3-0-----|-----------------3---3---|
E|-------------------------3---|-3-----------------------|

[Bridge cont.]
e|-----------------------------|-------------------------|
B|-----------------------------|-------------------------|
G|-----------------------------|-------------------------|
D|-0---0---0---0---------------|-------------------------|
A|---3---3---3---3-3-----------|-------------------------|
E|-----------------------------|-------------------------|

[Chorus]
e|-----------------------------|-------------------------|
B|-----------------------------|-------------------------|
G|-2-0---0---------------0-----|---2-0---0---------------|
D|-----2---2-2---2-2-2-2-------|-2-----2---2-2---4-4-4-4-|
A|-------------3-----------3-3-|---------------3---------|
E|-----------------------------|-------------------------|

[Chorus cont.]
e|-----------------------------|-------------------------|
B|-----------------------------|-1-0-0-0-----------------|
G|-0-------2---2---2-----------|-----------------------0-|
D|-------2---2---2---2-0-2-2-2-|-----------0-0-0-0-0-2---|
A|---3-3-----------------------|-------------------------|
E|-----------------------------|---------3---------------|

[Chorus cont.]
e|-----------------------------|-------------------------|
B|-----------------------------|-------------------------|
G|-----------------------------|-------------------------|
D|-0---------------------------|-------------------------|
A|---3-3-3-3-------------------|-------------------------|
E|-----------------------------|-------------------------|            
Submit corrections


        Million Reasons lessons Hard to play? Try these video lessons and learn fast Million Reasons lessons
        
↑ Back to top | Tablatures and chords for acoustic guitar and electric guitar, ukulele, drums are parodies/interpretations of the original songs. You may use it for private study, scholarship, research or language learning purposes only