» » »

Kvelertak - Offernatt Bass

Artists:  A B C D E F G H I J K L M N O P Q R S T U V W X Y Z # 

Offernatt Bass

(ver. 1) Click to play this song!
Kvelertak
 Rating:
4.4/5 (8 votes)

 Offernatt lessons Tabs too difficult? Try these video lessons and learn fast
 
                [Intro]
G|---------------------------|
D|---------------------------|
A|5555555-1111111-8881010----|
E|---------------------------|

G|---------------------------------------------------|
D|---------------------------------------------------|
A|55555-11111-0000------------------------7-7-7------|
E|-----------------1-1-0-3-0-5-3-0-000000------------|

G|-----------------------------|
D|-----------------------------|
A|0-2-3-5-7-8-9999-12121212----|
E|-----------------------------|

[Verse]
G|-------------------------------------------------------------------| x2
D|-------------------------------------------------------------------|
A|3-55-3-5---5-3--3-55-3-5---5-3--3-55-3-5---5-3----3-55-3-5---------|
E|--------000-------------000-------------000---------------000-3-5-3|

G|-------------------------------------------------------------| 
D|-------------------------------------------------------------|
A|3-55-3-5---5-3--3-55-3-5---5-3--3-55-3-5---5-3----3-55-3-5---|
E|--------000-------------000-------------000---------------000|

G|--------------------|
D|--------------------|
A|888-333-888-111-----|
E|--------------------|

[Chorus]
G|-----------------------------------------|
D|-----------------------------------------|           
A|5555555-1111111-8881010-55555-11111-0000-|
E|-----------------------------------------|

G|-------------------------------------------------------|
D|-------------------------------------------------------|
A|555555-111111-8881010-55555-11111-0000-----------------|
E|--------------------------------------1-1-0-3-0-5-3-0--|

[Verse]
G|-------------------------------------------------------------------| 
D|-------------------------------------------------------------------|
A|3-55-3-5---5-3--3-55-3-5---5-3--3-55-3-5---5-3----3-55-3-5---------|
E|----------------------------------------------------------5-3------|

G|-------------------------------------------------------------| 
D|-------------------------------------------------------------|
A|3-55-3-5---5-3--3-55-3-5---5-3--3-55-3-5---5-3----3-55-3-5---|
E|--------000-------------000-------------000---------------000|

G|--------------------|
D|--------------------|
A|888-333-888-1111111-|
E|--------------------|

G|------------------------------------------| x2
D|------------------------------------------|
A|5555555-1111111-8881010-55555-11111-00000-|
E|------------------------------------------|

G|-----------------|
D|-----------------|
A|-----------------|
E|1-1-0-3-0-3-5-2--|

[Solo]
G|----------------------------------------------| x2
D|----------------------------------------------|
A|0000-222-333-5555-7777-9999-121212-131313-----|
E|----------------------------------------------|

[Verse]
G|-------------------------------------------------------------------| 
D|-------------------------------------------------------------------|
A|3-55-3-5---5-3--3-55-3-5---5-3--3-55-3-5---5-3----3-55-3-5---------|
E|----------------------------------------------------------5-3------|

G|-------------------------------------------------------------| 
D|-------------------------------------------------------------|
A|3-55-3-5---5-3--3-55-3-5---5-3--3-55-3-5---5-3----3-55-3-5---|
E|--------000-------------000-------------000---------------000|

G|--------------------|
D|--------------------|
A|888-333-888-1111111-|
E|--------------------|

G|------------------------------------------| x2
D|------------------------------------------|
A|5555555-1111111-8881010-55555-11111-00000-|
E|------------------------------------------|

G|-----------------|
D|-----------------|
A|-----------------|
E|1-1-0-3-0-3-5-2--|            
Submit corrections


        Offernatt lessons Hard to play? Try these video lessons and learn fast Offernatt lessons
        
↑ Back to top | Tablatures and chords for acoustic guitar and electric guitar, ukulele, drums are parodies/interpretations of the original songs. You may use it for private study, scholarship, research or language learning purposes only