» » »

Kutless - Run Tabs

Artists:  A B C D E F G H I J K L M N O P Q R S T U V W X Y Z # 

Run Tabs

(ver. 1) Click to play this song!
Kutless
 Rating:
4/5 (4 votes)


 Run lessons Tabs too difficult? Try these video lessons and learn fast
 
                Key:
| /  slide up
| \  slide down
| h  hammer-on
| .  palm mute

Tuning: gtr. 1 Drop-d
        gtr. 2 regular E


riff 1 gtr.2
e|-0---3---0-------------0---3---2--|
B|-1---3---3---------3---1---3---3--|
G|-0---0---0-----0-------0---0---2--|
D|-2---0---4---4---4-----2---0---0--|
A|-3---2---5-------------3---2---0--|
E|-----3---------------------3------|

riff 2 gtr.2
e|---------------------------------------------|
B|--------------------------------------3------|
G|-----0---0-------0---0-------0-0--0-----0----|
D|---2---2-------2---2-------4----4---4-----4--|
A|-----------0h3---------3/5-------------------|
E|-0-------------------------------------------|

riff 3 gtr.2
e|-----------------------------------|
B|---------------------------------3-|
G|-----0---0-------0---0-------0-----|
D|---2---2-------2---2-------4---4---|
A|-----------0h3---------3/5---------|
E|-0---------------------------------|

riff 4 gtr.2
e|----------------------------------------------|
B|----------------------------------------------|
G|-----0---0-------0---0-------0-0---0---0------|
D|---2---2-------2---2-------4-----4---4---4----|
A|-----------0h3---------3/5-----------------5--|
E|-0--------------------------------------------|

riff 5 gtr.2
e|-----------------------------------------------|
B|-----------------------------------------3-----|
G|-----0---0-------0---0-------0-----0-------0---|
D|---2---2-------2---2-------4---4-----4-------4-|
A|-----------0h3---------3/5-------5-----5-------|
E|-0---------------------------------------------|

riff 6 gtr.2
e|-----------------------------------------------|
B|-----------------------------------3-----------|
G|-----0---0-------0---0-------0-------0---0-----|
D|---2---2-------2---2-------4---4-------4---4---|
A|-----------0h3---------3/5-------5-----------5-|
E|-0---------------------------------------------|

riff 7 gtr.1                  first ending
e|--------------------------|-------------------|
B|--------------------------|-------------------|
G|--------------------------|-------------------|
D|-11-11-11-11-11\5-5-5-5-5-|-0-0-0-0-0-0-0-0-0-|
A|-11-11-11-11-11\5-5-5-5-5-|-0-0-0-0-0-0-0-0-0-|
D|-11-11-11-11-11\5-5-5-5-5-|-0-0-0-0-0-0-0-0-0-|

second ending
e|------------------|
B|------------------|
G|------------------|
D|-0-0-0-0-0-0-0-0--|
A|-0-0-0-0-0-0-0-0--|
D|-0-0-0-0-0-0-0-0--|
     . .   . . 

third ending
e|----|
B|----|
G|----|
D|-0--|
A|-0--|
D|-0--|

riff 8
e|-0--0--0--3--0--0--------------|
B|-1--0--1--3--1--3--------3-----|
G|-2--0--0--0--2--0----0-----0---|
D|-2--2--2--0--2--4--4---4-----4-|
A|-0--2--3--2--0--5--------------|
E|----0-----3--------------------|

riff 9
e|-------------------------------------|
B|-----1-------0--------1--------------|
G|-------2-------0--------0-----0------|
D|---2-------2-------2--------0---0----|
A|-0---------------3----------------2--|
E|---------0----------------3----------|

riff 10
e|-------------------------------------|
B|-----1-------0-----------------3-----|
G|-------2-------0-----0-0---0-----0---|
D|---2-------2-------4-----4---4-----4-|
A|-0---------------5-------------------|
E|---------0---------------------------|


Intro/bridge:
riff 1
riff 2
riff 3
Verse 1&2:
riff 2 
riff 4 
riff 2
riff 5
riff 2
riff 6
Chorus:
riff 7 first ending
riff 7 second ending
riff 7 first ending
riff 9 third ending
Interlude:
riff 8
riff 9
riff 10
riff 9
riff 10
Repeat chorus as ending

Thats all. exept for the after the interlude 
they do dome different stough there
            
Submit corrections



        Run lessons Hard to play? Try these video lessons and learn fast Run lessons
        
↑ Back to top | Tablatures and chords for acoustic guitar and electric guitar, ukulele, drums are parodies/interpretations of the original songs. You may use it for private study, scholarship, research or language learning purposes only